Guetto girl - John Holt

Transcribed by everton
Instruments : Bass
G|-----------------------------------|
D|---7-5-7---7-5-7-------------------|
A|-5-------5---------7-5-7---7-5-7---|
E|-----------------5-------5---------|

G|---------------------------------|
D|---------------------------------|
A|-3-3333333-----------------------|
E|-----------0-1-2-----------------|

G|----------------------------------------------|
D|-------7-10-------6-9---7-5-7-----------------|
A|-8-888------7-777-----5-------1-1-3-3---------|
E|----------------------------------------------|
 
PG SP BRASIL

Home | Tablatures | Compos | Blog | Forum | Directory | Contact