Drifter - Dennis Brown

Transcribed by rastajo
Instruments : Guitar
Am Am Am Am C C Am Am

Am Am G G Am Am Am Am

chorus
Am Am Am Am G G G G


thanks rastafarai for this song.
jah bless
RASTAJO
Transcribed by Tonton
Instruments : Bass
Album : live Montreux

G|---------------------------------|---------------------------------|
D|---------------------------------|-----5-5-----5-5-----------------|
A|-----7-7-----7-7------7-7-----7--|-3-3-----3-3----------7-7-----7--|
E|-5-5-----5-5------5-5-----5-5----|------------------5-5-----5-5----|

G|---------------------------------|---------------------------------|
D|---------------------------------|---------------------------------|
A|-----7-7-----7--------5-5-----5--|-----7-7-----7-7------7-7-----7--|
E|-5-5-----5-5------3-3-----3-3----|-5-5-----5-5------5-5-----5-5----|

Home | Tablatures | Compos | Blog | Forum | Directory | Contact