Handwritting on the wall - Dennis Brown

Transcribed by leinadaljure
Instruments : Bass
Verse:
G|--------5--------------------------------|
D|------5--------3-------------------------|
A|-5--5-------5-----5---------5--5-5-------|
E|---------------------3--3-6--------5-3-3-|

G|-----------------------------------------|
D|--------5--------------------------------|
A|-3--3-6-----5--5--5---------5--5-5-------|
E|---------------------3--3-6--------5-3-3-|


Variation:
(2nd Verse)
G|--------5--------------------------------|
D|------5----------------------------------|
A|-5--5------5---5---5--------5--5-5-------|
E|-------------5---5---3--3-6--------5-3-3-|

G|-----------------------------------------|
D|--------5--------------------------------|
A|-3--3-6-----5--5--5---------5--5-5-------|
E|---------------------3--3-6--------5-3-3-|


Chorus:
G|-----------------------------------------|
D|-----------------------------------------|
A|-----------------------------------------|
E|--6-6-3-3-6-6-3-------6-6-3-3-6-6-3------|

G|-----------------------------------------|
D|-----------------------------------------|
A|--5-5-5---5-5-5---5----------------5-----|
E|--------5-----------3-3-3----3--6------3-|

G|---------------------------------------------------|
D|---------5-----------------7-----------------------|
A|--3--3-6----3-3-3---5--5-8----5-5-5----------------|
E|-------------------------------------3-3-3-1-3-3-3-|

G|-----------------------------------------------------------------------|
D|-----------------------5-----------------7-----------------------------|
A|--------5-------3--3-6----3-3-3---5--5-8----5-5-5---------5--5-5-------|
E|--3--6------3--------------------------------------3--3-6--------5-3-3-|


Variation:
(2nd chorus)
G|-----------------------------------------|
D|-----------------------------------------|
A|-----------------------------------------|
E|--6-6-3-3-6-6-3-------6-6-3-3-6-6-3------|

G|-----------------------------------------|
D|-----------------------------------------|
A|--5-5-5---5-5-5---5----------------5-----|
E|--------5-----------3-3-3----3--6------3-|

G|-------------------------------------------------------|
D|---------5--5------------------------------------------|
A|--3--3-6------6-3-3-3---5---5---5--5-5-5---------------|
E|--------------------------5---5----------3-3-3-1-3-3-3-|

G|--------------------------------------------------------------------------|
D|-----------------------5--------------------------------------------------|
A|--------5-------3--3-6----3-3-3---5-5---5-5---555---5---------------------|
E|--3--6------3-------------------------5-----5-----5---3--3-6--------5-3-3-|

Home | Tablatures | Compos | Blog | Forum | Directory | Contact