Lovelight - Dennis Brown

Transcribed by leinadaljure
Instruments : Bass
Intro: x2

G|--------------------|--------------------|
D|--------------------|--------------------|
A|---------3--3-------|---------3--3-------|
E|--3--3--------5--7--|--3-3-3-------5--3--|

All the song:

G|--------------------------|--------------------------|
D|--------------------------|--------------------------|
A|--------------------------|------------------5-7-5-7-|
E|--0--3-3-3--3-3-3-3-5-----|--0--3-3-3--5-5-5---------|


Home | Tablatures | Compos | Blog | Forum | Directory | Contact