To be my lover - Dennis Brown

Transcribed by Fredbass
Instruments : Guitar, Bass
                               
Riff 1 :
G||------------------------|-----------------------||
D||---------10-9---10-7-10-|----------10---12-10-9-||
A||-10-12------------------|----10-12--------------||
E||------------------------|-----------------------|| 


Riff 2 :      
G||------------------------|-----------------------||
D||---------10-9---10-7-10-|----7-7-7--------------||
A||-10-12------------------|----------5---5-5------||
E||------------------------|--------------------3--||


          

          Correciones favor de escribir a:
        ***alfredo_leondejuda@hotmail.com***

Home | Tablatures | Compos | Blog | Forum | Directory | Contact