C'est du roots - Tryo

Transcribed by broz
Instruments : Guitar


Intro :
| / / D / / / D / / / Bb/ / / C / | / / D / / / D / / / Bb/ / / C / | x2
|-------9-------------------------|-------9-------------------------|
|---------9-----------------------|---------9-----------------------|
|-7-----------------------9-5-7---|-7---------------9-9-----7-5-5---|
|-----------------7-7-------------|---------------------------------|
|---------------------------------|---------------------------------|
|---------------------------------|---------------------------------|

| / / Bb/ / / C / / / A / / / A / |
|---------------------------------|
|---------------------------------|
|--9-9-----7-5-5-6--6-6-6-6-6-6-6-|
|---------------------------------|
|---------------------------------|
|---------------------------------|



Couplet  : 
| / / D / / / D / / / G / / / G / | / / D / / / D / / / A / / / A / | X2

Pont :
| / / G / / / G / / / A / / / A / | / / G / / / G / / / A / / / A / |

Refrain :
| / / D / / / D / / / G / / / G / | / / D / / / D / / / A / / / A / | X2
Transcribed by yéyette
Instruments : Guitar
Intro:
| / / D / / / D / / / Bb / / / C /| / / D / / / D / / / Bb / / / C /|
|-------9-------------------------|-------9-------------------------|
|---------9-----------------------|---------9-----------------------|
|-7-----------------------9-5-7---|-7---------------9-9-----7-5-7---|x3
|-----------------8-8-------------|---------------------------------|
|---------------------------------|---------------------------------|
|---------------------------------|---------------------------------|


| / / D / / / D / / / Bb / / / C /| / / D / / / D / / / Bb / / C / A /|
|-------9-------------------------|-------9---------------------------|
|---------9-----------------------|---------9-------------------------|
|-7-----------------------9-5-7---|-7---------------9-9-----7-5-5-6---|
|-----------------8-8-------------|-----------------------------------|
|---------------------------------|-----------------------------------|
|---------------------------------|-----------------------------------|

| / / D / / / D / / / G / / / G / | / / D / / / D / / / A / / / A / |x4 

Couplet:
| / / D / / / D / / / G / / / G / | / / D / / / D / / / A / / / A / |x2

Pont:
| / / G / / / G / / / A / / / A / | / / G / / / G / / / A / / / A / |

Refrain:
| / / D / / / D / / / G / / / G / | / / D / / / D / / / A / / / A / |x2



Transcribed by greg69 vive tryo
Instruments : Guitar
[D]                         [G]
Kif Ă  donf raggamuffin ruba dub
[D]            [A]
Style et ses ridims
[D]                    [G]
InspirĂ© par tant de couleurs
[D]        [A]
Je m'imagine
[D]                   [G]
Une vie stylĂ©e pour tous les
[D]           [A]
FrĂ©rots et frangines
[D]                  [G]
Qui ont tellement Ă©voluĂ©s
[D]                  [A]
Et ont oubliĂ© leurs racines
[G]                         [A]
C'est peut-ĂŞtre pas une solution
[G]                                 [A] 
mais je crois savoir ce qu'il nous faut

Nous faut ?
[G]                       [A]                                
C'est peut-ĂŞtre pas la solution
[G]                            [A]
mais je crois savoir quel est le mot

Refrain:

[D]                    [G]           [D]             [A]
C’est du roots man roots qu’il nous faut ,qu’il nous faut
[D]               [G]   [D]           [A]
C’est du roots women un retour au racine

[D]                    [G]           [D]             [A]
C’est du roots man roots qu’il nous faut ,qu’il nous faut
[D]                  [G]              [D]         [A]
C’est du roots qui dit roots women un retour au tempo


Bon gratouillage ...
Transcribed by jeje
Instruments : Bass
G---7--12-7---------------------------------
D-----------7-7--9-7-8----------------------
A-------------------------------------------
E-------------------------------------------

Home | Tablatures | Compos | Blog | Forum | Directory | Contact