Tablatures







I'n'I soldier - Dub Incorporation

Partition transcrite par everton
Instruments : Partition basse
Intro
G:------------------|-------------------|
D:------------------|-------------------|
A:--5—57875---------|--3333--5----------|
E:------------------|-------------------|

G:------------------|-------------------|
D:------------------|-------------------|
A:--5—57875---------|----0-3—5----------|
E:------------------|-------------------|

G:------------------|-------------------|
D:---7---5--3-------|-------------------|
A:------------0-3-5-|-------------------|
E:------------------|-------------------|

verse
G:------------------|-------------------|
D:------------------|-------------------|
A:--5—57875---------|--3333--5----------|
E:------------------|-------------------|

G:------------------|-------------------|
D:------------------|-------------------|
A:--5—57875---------|----0-3—5----------|
E:------------------|-------------------|

G:------------------|-------------------|
D:---7---5--3-------|-------------------|
A:------------0---5-|-------------------|
E:------------------|-------------------|

JD.Imperador PG SP Brasil
Partition transcrite par Pixel
Instruments : Partition guitare
Dm - Dm - Am - Am
Dm - Dm - C - C



Accueil | Tablatures | Compos | Blog | Forum | Annuaire | Contact