Les portes du pénitencier - Johnny Hallyday

Partition transcrite par jimpage
Instruments : Partition guitare
   Am     C      D      F        Am     C      E      E7

E|----0------0------2------1---|----0------0------0------0---|
B|---1-1----1-1----3-3----1-1--|---1-1----1-1----0-0----3-3--|
G|--2---2--0---0--2---2--2---2-|--2---2--0---0--1---1--1---1-|
D|---------------0------3------|-----------------------------|
A|-0------3--------------------|-0------3--------------------|
E|-----------------------------|---------------0------0------|

   Am     C      D      F        Am     E      Am     E7

E|----0------0------2------1---|----0------0------0------0---|
B|---1-1----1-1----3-3----1-1--|---1-1----0-0----1-1----3-3--|
G|--2---2--0---0--2---2--2---2-|--2---2--1---1--2---2--1---1-|
D|---------------0------3------|-----------------------------|
A|-0------3--------------------|-0-------------0-------------|
E|-----------------------------|--------0-------------0------|
 

      A jouer en boucle.

Accueil | Tablatures | Compos | Blog | Forum | Annuaire | Contact