Waiting on an angel - Ben Harper

Partition transcrite par Tiouz
Instruments : Partition guitare
Album: Welcome to the Cruel World

Intro:

1:------------------------------------------------|
2:---1-1---1-1---1-1---0-0h1---1-1---1-1---1-1----|
3:---0-0---0-0---2-2---0-0-----0-0---0-0---2-2----|
4:---2-2---2-2---2-2---0-0h2---2-2---2-2---2-2----|
5:-3-----2-----0-------------3-----2-----0--------|
6:-------------------3-------------------------3--|



Couplets:
1:---------------------------
2:---1-1---1-1---1-1---0-0h1-
3:---0-0---0-0---2-2---0-0---  Ripiter
4:---2-2---2-2---2-2---0-0h2- trois fois
5:-3-----2-----0-------------
6:-------------------3-------


Refrain:

1:---------------------------------------------|
2---1-1-----0-0h1---1-1---1-1-----1-1-----0-0h1|
3:--2-0h2---0-0h2---2-2---0-0h2---2-0h2---0-0--|
4---3-3-----0-0h2---2-2---0-0-----2-0-----0-0h2|
5:---------------0-----------------------------|
6:1-------3-------------0-------1-------3------|


Pont:

1:---------------------------
2:---1-1---1-1---1-1---0-0h1-
3:---0-0---0-0---2-2---0-0---  Ripiter
4:---2-2---2-2---2-2---0-0h2- deux fois
5:-3-----2-----0-------------
6:-------------------3-------


Couplet
 
Refrain

Pont

Couplet

Refrain

Pont

Couplet

Fin:

1:----------------------------------
2---1-1-----0-0h1-----1-1-----1-1---
3:--2-2-----0-0h2-----2-2-----0-0h2-   Ripiter
4---3-3-----0-0h2-----2-2-----0-0---  deux fois
5:-----------------0----------------
6:1-------3----------------0--------

I kwnow wanna go.....
Partition transcrite par mouthmouthe
Instruments : Partition guitare
e|-------------|-----------------|-------------|-----------------|
B|---1-1---1-1-|---1-1p0---0-0h1-|---1-1---1-1-|---1-1p0---------|
G|---0-0---0-0-|---2-2p0---0-0---|---0-0---0-0-|---2-2p0---------|
D|-------------|-----------------|-------------|-----------------|
A|-3-----2-----|-0---------------|-3-----2-----|-0---------------|
E|-------------|---------3-------|-------------|---------3-------|

Verse:
3 Times...                                                          ...¬
e|----------------------------------|----------------------------------|
B|-------1----1-------1----1--------|-------1---1p0-------0---0h1------|
G|-------0----0-------0----0--------|-------2---2---------0---0--------|
D|----------------------------------|----------------------------------|
A|---3------------2-----------------|---0------------------------------|
E|----------------------------------|-----------------3----------------|
   Waiting....        on.....      an   angel.........           
   One......   to carry    me...        home..........
         Hope you come          and     see.... me    soon    Cos I

                    Repeat...                   ...¬
e|-----------------|-------------|-----------------|
B|---1-1s3---0-0h1-|---1-1---1-1-|---1-1p0---0-0h1-|
G|---0-0-----0-0---|---0-0---0-0-|---2-2p0---0-0---|
D|-----------------|-------------|-----------------|
A|-----------------|-3-----2-----|-0---------------|
E|-1-------3-------|-------------|---------3-------|
  don't wanna go   alone

There isn't a chorus after the first first, so you just loop back to start 
the next verse:
Now angel, won't you come round here
Angel hear my plea
Take my hand and lift me up
So that I can fly with thee

The guitar part for the last line is sightly different, to lead into the 
chorus:
e|-----------------|-----------------|
B|---1-1s3---0-0h1-|---1-1p0---0-0h1-|
G|---0-0-----0-0---|---0-0-----0-0---|
D|-----------------|-----------------|
A|-----------------|-3---------------|
E|-1-------3-------|---------0-------|
   I   can  fly   with thee

Chorus:
4 Times...                        ...¬
e|-----------------|-----------------|
B|---1-1s3---0-0h1-|---1-1p0---0-0h1-|
G|---0-0-----0-0---|---0-0-----0-0---|
D|-----------------|-----------------|
A|-----------------|-3---------------|
E|-1-------3-------|---------0-------|
  Waiting  on    an  angel     And I
  know  it won't be long         To
  find   myself   a  resting place
  In   my   angel's  arms
  
e|-----------------|-------------|-----------------|
B|---1-1s3---0-0h1-|---1-1---1-1-|---1-1p0---0-0h1-|
G|---0-0-----0-0---|---0-0---0-0-|---2-2p0---0-0---|
D|-----------------|-------------|-----------------|
A|-----------------|-3-----2-----|-0---------------|
E|-1-------3-------|-------------|---------3-------|
   In   my   angel's  arms 

And that's pretty much all the pieces! The rest of the lyrics are 
easy enough to find, and I'm not doing all the work!(g) You should 
be able to put it all together by listening to the man himself, and
keep practising!

Accueil | Tablatures | Compos | Blog | Forum | Annuaire | Contact