Tout le bonheur du monde - Sinsemilia

Partition transcrite par Smo-K
Instruments : Partition guitare
Accords:

Am - 002210
F  - 133211
G  - 320003
Bb - 113331
Dm - 000231

Intro: Am-F-G-Am  (x2)

Refrain:

Am                                 F
On vous souaite tout le bonheur du monde
G                             Am
Et que quelqu'1 vous tende la mains
Am                            F
Que votre chemin evite les bombes
G                                Am
Qu'il vous mène vers de calmes jardins...

Couplet:

G                          Am
Puisque lavenir vous.....
Bb
Puisqu'on ne contrôle pas...
Dm
Que votre envol est...
G                          Am
Comme tout ce qu'on a ....
Bb
Ne saurait....
Dm
Dans cette liberté....
Bb                         Dm
Comme on n'sera pas ....
Bb                         Dm
Comme on le fut....

A jouer de préfèrance avec une gratte folk 
pour grder "l'esprit" de la chanson.
Ciao...

Partition transcrite par roki62
Instruments : Partition guitare
la m / fa / sol /la m

tout ça en rythme
Partition transcrite par sami
Instruments : Partition guitare
2ème guitare :

e:------------------------------------------
b:------------------------------------------
g:------------------------------------------
d:------------------------------------------
a:------7---------------12-9-----------12-10
e:7-7-7---7-8--10-10-10-------12-12-12------

Et ainsi de suite,
salut bonne chance et bonne gratte.
Partition transcrite par Lisa
Instruments : Partition guitare
Intro :

e--------------------------------------------------------------------
B---------------------------------------------------3--1-------------
G----------2-------------------------5--4----2--2--------------------
D--1/2--2-----2--3-----3/5---5--5------------------------------------
A--------------------------------------------------------------------
E--------------------------------------------------------------------

Partition transcrite par chcomp
Instruments : Partition guitare
Solo :

  e--------------------------------------------------------------------
  B---------------------------------------------------3--1-------------
  G----------2-------------------------5--4----2--2--------------------
  D--1/2--2-----2--3-----3/5---5--5------------------------------------
  A--------------------------------------------------------------------
  E--------------------------------------------------------------------

                                 il suffit de répéter... 
                                                               chcomp
Partition transcrite par seb
Instruments : Partition basse

G------------------------------|-------------------------------
D------------------------------|-----------------7~-----7------
A---7~-----7-----5~-----5---0--|---8~-----8----5----5-5---5----
E-5----5-5---5-3----3-3---3----|-6----6-6---6------------------
 

G----------------------------|-------------------------------
D----------------------------|-----------------7~-----7------
A---5~-----5------7~-----7---|---8~-----8----5----5-5---5----
E-3----3-3---3--5----5-5---5-|-6----6-6---6------------------
 

G-----------------------
D-----------------------
A---7-------------5-3---
E-5---0-1--3-3--5-------
 

Pont :
 
G----------------
D---2-2----------
A-1-----0-----1--
E---------0-3----

Accueil | Tablatures | Compos | Blog | Forum | Annuaire | Contact