Trace ta route - Alex Toucourt

Partition transcrite par ElviDo
Instruments : Partition guitare
Intro :

E|---------------------------------------------------------------------|
B|----9--x-9--x-9~---x-----5-x-5-x-5~---x----9--x-9--x-10~--x----------|
G|----11-x-11-x-11~--x-----7-x-7-x-7~---x----11-x-11-x-11~--x----------|
D|----11-x-11-x-11~--x-----7-x-7-x-7~---x----11-x-11-x-11~--x----------|
A|--9----x----x-9~---x---5---x---x-5~---x--9----x----x-9~---x----------|
E|---------------------------------------------------------------------|

E|---------------------------------------------------------------------|
B|----5-x-5-x---5~-----x----5-x-5-x-5----------------------------------|
G|----7-x-7-x---7~-----x----7-x-7-x-7-----------------------------------|
D|----7-x-7-x---7p6~---x----7-x-7-x-7-----------------------------------|
A|--5---x---x-5~-------x--5---x---x-5-----------------------------------|
E|----------------------------------------------------------------------|


Couplets : 

E / E / D / D

Refrain :

F#m / F#m / C#m / C#m / D / D / A / A

Dernier accord : F#m


Pour me contacter : campier@gmail.com

Accueil | Tablatures | Compos | Blog | Forum | Annuaire | Contact