Side to side - Ariana Grande

Partition transcrite par everton
Instruments : Partition guitare, Partition basse
intro: No bass


Verse 1(0:12):

   1 + 2 + 3 + 4 +
G|-----------------|
D|-----------------|
A|-----------------|
E|---------12/-----|


   1 + 2 + 3 + 4 +   1 + 2 + 3 + 4 +   1 + 2 + 3 + 4 +   1 + 2 + 3 + 4 +  
G|-----------------|-----------------|-----------------|-----------------|
D|---------4-4-2---|-------------2---|---------4-4-2---|-------------2---|
A|---------------4-|-4-----4---------|---------------4-|-4-----4---------|
E|-2-----2---------|-----------------|-2-----2---------|-----------------|


   1 + 2 + 3 + 4 +   1 + 2 + 3 + 4 +   1 + 2 + 3 + 4 +   1 + 2 + 3 + 4 +  
G|-----------------|-----------------|-----------------|-----------------|
D|-----------------|-2-----2---2-2-4-|---------4-4-2---|-------------2---|
A|-5-----5---5-5---|-----------------|---------------4-|-4-----4---------|
E|-----------------|-----------------|-2-----2---------|-----------------|


   1 + 2 + 3 + 4 +   1 + 2 + 3 + 4 +   1 + 2 + 3 + 4 +   1 + 2 + 3 + 4 +  
G|-----------------|-----------------|-----------------|-----------------|
D|---------4-4-2---|-------------2---|---------4-4-2---|-------------2---|
A|---------------4-|-4-----4---------|---------------4-|-4-----4---------|
E|-2-----2---------|-----------------|-2-----2---------|-----------------|


   1 + 2 + 3 + 4 +   1 + 2 + 3 + 4 +   1 + 2 + 3 + 4 +   1 + 2 + 3 + 4 +  
G|-----------------|-----------------|-----------------|-----------------|
D|-----------------|-2-----2---2-2-4-|---------4-4-2---|-------------2---|
A|-5-----5---5-5---|-----------------|---------------4-|-4-----4---------|
E|-----------------|-----------------|-2-----2---------|-----------------|


Pre-Chorus 1(0:38): No bass but optional synth part

   1 + 2 + 3 + 4 +   1 + 2 + 3 + 4 +   1 + 2 + 3 + 4 +   1 + 2 + 3 + 4 +  
G|-----------------|-----------------|-----------------|-----------------|
D|-----------------|---------2-------|-----------------|---------2-------|
A|-----------------|-4---------------|-----------------|-4---------------|
E|-2---------------|-----------------|-2---------------|-----------------|


   1 + 2 + 3 + 4 +   1 + 2 + 3 + 4 +   1 + 2 + 3 + 4 +   1 + 2 + 3 + 4 +  
G|-----------------|-----------------|-----------------|-----------------|
D|-----------------|-2---------------|-----------------|-----------------|
A|-5---------------|-----------------|-----------------|-----------------|
E|-----------------|-----------------|-2---------------|-----------------|


Chorus 1: 

(0:50)


   1 + 2 + 3 + 4 +   1 + 2 + 3 + 4 +   1 + 2 + 3 + 4 +   1 + 2 + 3 + 4 +  
G|-----------------|-----------------|-----------------|-----------------|
D|-----------------|-----------------|-----------------|-----------------|
A|-----------------|-----------------|-----------------|-----------------|
E|-9/-----2-------|-----------------|-----------------|-----------------|


   1 + 2 + 3 + 4 +   1 + 2 + 3 + 4 +   1 + 2 + 3 + 4 +   1 + 2 + 3 + 4 +  
G|-----------------|-----------------|-----------------|-----------------|
D|-----------------|-----------------|-----------------|-----------------|
A|-----------------|-----------------|-----------------|-----------------|
E|-----------------|-----------------|-----------------|---------12/-----|


(1:01)

   1 + 2 + 3 + 4 +   1 + 2 + 3 + 4 +   1 + 2 + 3 + 4 +   1 + 2 + 3 + 4 +  
G|-----------------|-----------------|-----------------|-----------------|
D|-----------------|---------2-2-2-2-|-----------------|---------2-2-2-2-|
A|-----------------|-4-4-4-4---------|-----------------|-4-4-4-4---------|
E|-2-2-2-2-------2-|-----------------|-2-2-2-2-------2-|-----------------|

   1 + 2 + 3 + 4 +   1 + 2 + 3 + 4 +   1 + 2 + 3 + 4 +   1 + 2 + 3 + 4 +  
G|-----------------|-----------------|-----------------|-----------------|
D|-----------------|-2-2-2-2---------|-----------------|-----------------|
A|-5-5-5-5-------5-|-----------------|-----------------|-----------------|
E|-----------------|---------0-0-0-0-|-2-2-2-2-------2-|-2---2-2---------|


Verse 2(1:14):

   1 + 2 + 3 + 4 +   1 + 2 + 3 + 4 +   1 + 2 + 3 + 4 +   1 + 2 + 3 + 4 +  
G|-----------------|-----------------|-----------------|-----------------|
D|---------4-4-2---|-------------2---|---------4-4-2---|-------------2---|
A|---------------4-|-4-----4---------|---------------4-|-4-----4---------|
E|-2-----2---------|-----------------|-2-----2---------|-----------------|


   1 + 2 + 3 + 4 +   1 + 2 + 3 + 4 +   1 + 2 + 3 + 4 +   1 + 2 + 3 + 4 +  
G|-----------------|-----------------|-----------------|-----------------|
D|-----------------|-2-----2---2-2-4-|---------4-4-2---|-------------2---|
A|-5-----5---5-5---|-----------------|---------------4-|-4-----4---------|
E|-----------------|-----------------|-2-----2---------|-----------------|


   1 + 2 + 3 + 4 +   1 + 2 + 3 + 4 +   1 + 2 + 3 + 4 +   1 + 2 + 3 + 4 +  
G|-----------------|-----------------|-----------------|-----------------|
D|---------4-4-2---|-------------2---|---------4-4-2---|-------------2---|
A|---------------4-|-4-----4---------|---------------4-|-4-----4---------|
E|-2-----2---------|-----------------|-2-----2---------|-----------------|


   1 + 2 + 3 + 4 +   1 + 2 + 3 + 4 +   1 + 2 + 3 + 4 +   1 + 2 + 3 + 4 +  
G|-----------------|-----------------|-----------------|-----------------|
D|-----------------|-2-----2---2-2-4-|---------4-4-2---|-------------2---|
A|-5-----5---5-5---|-----------------|---------------4-|-4-----4---------|
E|-----------------|-----------------|-2-----2---------|-----------------|


Pre-Chorus 2(1:38): No bass but optional synth part

   1 + 2 + 3 + 4 +   1 + 2 + 3 + 4 +   1 + 2 + 3 + 4 +   1 + 2 + 3 + 4 +  
G|-----------------|-----------------|-----------------|-----------------|
D|-----------------|---------2-------|-----------------|---------2-------|
A|-----------------|-4---------------|-----------------|-4---------------|
E|-2---------------|-----------------|-2---------------|-----------------|


   1 + 2 + 3 + 4 +   1 + 2 + 3 + 4 +   1 + 2 + 3 + 4 +   1 + 2 + 3 + 4 +  
G|-----------------|-----------------|-----------------|-----------------|
D|-----------------|-2---------------|-----------------|-----------------|
A|-5---------------|-----------------|-----------------|-----------------|
E|-----------------|-----------------|-2---------------|-----------------|


Chorus 2: 

(1:51)

   1 + 2 + 3 + 4 +   1 + 2 + 3 + 4 +   1 + 2 + 3 + 4 +   1 + 2 + 3 + 4 +  
G|-----------------|-----------------|-----------------|-----------------|
D|-----------------|-----------------|-----------------|-----------------|
A|-----------------|-----------------|-----------------|-----------------|
E|-9/-----2-------|-----------------|-----------------|-----------------|


   1 + 2 + 3 + 4 +   1 + 2 + 3 + 4 +   1 + 2 + 3 + 4 +   1 + 2 + 3 + 4 +  
G|-----------------|-----------------|-----------------|-----------------|
D|-----------------|-----------------|-----------------|-----------------|
A|-----------------|-----------------|-----------------|-----------------|
E|-----------------|-----------------|-----------------|---------12/-----|


(2:02)

   1 + 2 + 3 + 4 +   1 + 2 + 3 + 4 +   1 + 2 + 3 + 4 +   1 + 2 + 3 + 4 +  
G|-----------------|-----------------|-----------------|-----------------|
D|-----------------|---------2-2-2-2-|-----------------|---------2-2-2-2-|
A|-----------------|-4-4-4-4---------|-----------------|-4-4-4-4---------|
E|-2-2-2-2-------2-|-----------------|-2-2-2-2-------2-|-----------------|

   1 + 2 + 3 + 4 +   1 + 2 + 3 + 4 +   1 + 2 + 3 + 4 +   1 + 2 + 3 + 4 +  
G|-----------------|-----------------|-----------------|-----------------|
D|-----------------|-2-2-2-2---------|-----------------|-----------------|
A|-5-5-5-5-------5-|-----------------|-----------------|-----------------|
E|-----------------|---------0-0-0-0-|-2-2-2-2-------2-|-2---2-2---------|


Bridge (Nicki Minaj rap at 2:14):

   1 + 2 + 3 + 4 +   1 + 2 + 3 + 4 +   1 + 2 + 3 + 4 +   1 + 2 + 3 + 4 +  
G|-----------------|-----------------|-----------------|-----------------|
D|-----------------|-----------------|-----------------|-----------------|
A|-----------------|-----------------|-----------------|-----------------|
E|-9/-----2-------|-----------------|-----------------|-----------------|


   1 + 2 + 3 + 4 +   1 + 2 + 3 + 4 +   1 + 2 + 3 + 4 +   1 + 2 + 3 + 4 +  
G|-----------------|-----------------|-----------------|-----------------|
D|-----------------|-----------------|-----------------|-----------------|
A|-----------------|-----------------|-----------------|-----------------|
E|-----------------|-----------------|-----------------|---------12/-----|


   1 + 2 + 3 + 4 +   1 + 2 + 3 + 4 +   1 + 2 + 3 + 4 +   1 + 2 + 3 + 4 +  
G|-----------------|-----------------|-----------------|-----------------|
D|-----------------|-----------------|-----------------|-----------------|
A|-----------------|-----------------|-----------------|-----------------|
E|-2---------------|-----------------|-----------------|---------12/-----|


   1 + 2 + 3 + 4 +   1 + 2 + 3 + 4 +   1 + 2 + 3 + 4 +   1 + 2 + 3 + 4 +  
G|-----------------|-----------------|-----------------|-----------------|
D|-----------------|-----------------|-----------------|-----------------|
A|-----------------|-----------------|-----------------|-----------------|
E|-----------------|-----------------|-----------------|-----------------|


   1 + 2 + 3 + 4 +   1 + 2 + 3 + 4 +   1 + 2 + 3 + 4 +   1 + 2 + 3 + 4 +  
G|-----------------|-----------------|-----------------|-----------------|
D|-------4---4-2---|-----------------|-------4---4-2---|-----------------|
A|---------------4-|-4-----4---------|---------------4-|-4-----4---------|
E|-2---------------|-----------------|-2---------------|-----------------|

   1 + 2 + 3 + 4 +   1 + 2 + 3 + 4 +   1 + 2 + 3 + 4 +   1 + 2 + 3 + 4 +  
G|-----------------|-----------------|-----------------|-----------------|
D|---------------2-|-2-----2---2-2-4-|-------4---------|-----------------|
A|-5-----5---5-----|-----------------|-----------------|-----------------|
E|-----------------|-----------------|-2---------------|-----------------|


Pre-Chorus 3(2:50): No bass but optional synth part

   1 + 2 + 3 + 4 +   1 + 2 + 3 + 4 +   1 + 2 + 3 + 4 +   1 + 2 + 3 + 4 +  
G|-----------------|-----------------|-----------------|-----------------|
D|-----------------|---------2-------|-----------------|---------2-------|
A|-----------------|-4---------------|-----------------|-4---------------|
E|-2---------------|-----------------|-2---------------|-----------------|


   1 + 2 + 3 + 4 +   1 + 2 + 3 + 4 +   1 + 2 + 3 + 4 +   1 + 2 + 3 + 4 +  
G|-----------------|-----------------|-----------------|-----------------|
D|-----------------|-2---------------|-----------------|-----------------|
A|-5---------------|-----------------|-----------------|-----------------|
E|-----------------|-----------------|-2---------------|-----------------|


Chorus 3(3:04): 

   1 + 2 + 3 + 4 +   1 + 2 + 3 + 4 +   1 + 2 + 3 + 4 +   1 + 2 + 3 + 4 +  
G|-----------------|-----------------|-----------------|-----------------|
D|-----------------|---------2-2-2-2-|-----------------|---------2-2-2-2-|
A|-----------------|-4-4-4-4---------|-----------------|-4-4-4-4---------|
E|-2-2-2-2-------2-|-----------------|-2-2-2-2-------2-|-----------------|

   1 + 2 + 3 + 4 +   1 + 2 + 3 + 4 +   1 + 2 + 3 + 4 +   1 + 2 + 3 + 4 +  
G|-----------------|-----------------|-----------------|-----------------|
D|-----------------|-2-2-2-2---------|-----------------|-----------------|
A|-5-5-5-5-------5-|-----------------|-----------------|-----------------|
E|-----------------|---------0-0-0-0-|-2-2-2-2-------2-|-2---2-2---------|

   1 + 2 + 3 + 4 +   1 + 2 + 3 + 4 +   1 + 2 + 3 + 4 +   1 + 2 + 3 + 4 +  
G|-----------------|-----------------|-----------------|-----------------|
D|-----------------|---------2-2-2-2-|-----------------|---------2-2-2-2-|
A|-----------------|-4-4-4-4---------|-----------------|-4-4-4-4---------|
E|-2-2-2-2-------2-|-----------------|-2-2-2-2-------2-|-----------------|

   1 + 2 + 3 + 4 +   1 + 2 + 3 + 4 +   1 + 2 + 3 + 4 +   1 + 2 + 3 + 4 +  
G|-----------------|-----------------|-----------------|-----------------|
D|-----------------|-2-2-2-2---------|-----------------|-----------------|
A|-5-5-5-5-------5-|-----------------|-----------------|-----------------|
E|-----------------|---------0-0-0-0-|-2-2-2-2-------2-|-2---2-2---------|



Outro(3:28):

   1 + 2 + 3 + 4 +   1 + 2 + 3 + 4 +   1 + 2 + 3 + 4 +   1 + 2 + 3 + 4 +  
G|-----------------|-----------------|-----------------|-----------------|
D|-----------------|-----------------|-----------------|-----------------|
A|-----------------|-----------------|-----------------|-----------------|
E|-9/-----2-------|-----------------|-----------------|-----------------|


   1 + 2 + 3 + 4 +   1 + 2 + 3 + 4 +   1 + 2 + 3 + 4 +   1 + 2 + 3 + 4 +  
G|-----------------|-----------------|-----------------|-----------------|
D|-----------------|-----------------|-----------------|-----------------|
A|-----------------|-----------------|-----------------|-----------------|
E|-----------------|-----------------|-----------------|-----------------|


                                 ou


Intro: no bass
Verse:

G|---------|--------------------------------|--------------------------------|
D|---------|--------------------------------|--------------------------------|
A|---------|------9-9-9-7--4-----4---x-7--|------9-9-9-7--4-----4---x-7--|
E|-14-----|2-------------------------------|2-------------------------------|
   4 e & a |1 e % a 2 e & a 3 e & a 4 e & a |1 e & a 2 e & a 3 e & a 4 e & a |


G|---------------------------------|--------------------------------|
D|---------------------------------|--------------------------------|
A|-5-----5-----5-5/7-----7-----7-7/|------9-9-9-7--4-----4---x-7--|
E|---------------------------------|2-------------------------------|
   1 e % a 2 e & a 3 e & a 4 e & a |1 e & a 2 e & a 3 e & a 4 e & a |

Repeat^
Prechorus (legato):

G|---------------------------------|--------------------------------|
D|-----------------6-------9-------|11--------------6-------9-------|
A|-----------------4-------7-------|9---------------4-------7-------|
E|-2-------------------------------|--------------------------------|
   1 e % a 2 e & a 3 e & a 4 e & a |1 e & a 2 e & a 3 e & a 4 e & a |


G|---------------------------------|--------------------------------|
D|-7---------------9---------------|11------------------------------|
A|-5---------------7---------------|9---------------9---9---9---9--|
E|---------------------------------|--------------------------------|
   1 e % a 2 e & a 3 e & a 4 e & a |1 e & a 2 e & a 3 e & a 4 e & a |

Rest for the first part of the chorus
Chorus

G|---------------------------------|--------------------------------|
D|-------------------------2-2-2-2-|------------------------2-2-2-2-|
A|-----------------4-4-4-4---------|----------------4-4-4-4---------|
E|-2-2-2-2-------2-----------------|2-2-2-2-------2-----------------|
   1 e % a 2 e & a 3 e & a 4 e & a |1 e & a 2 e & a 3 e & a 4 e & a |


G|---------------------------------|--------------------------------|
D|---------------------------------|--------------------------------|
A|-5-5-5-5-------5-----------------|--------------------------------|
E|-----------------0-0-0-0-------0-|2-2-2-2-------2-2-2-2-2---------|
   1 e % a 2 e & a 3 e & a 4 e & a |1 e & a 2 e & a 3 e & a 4 e & a |


Verse #2:
G|---------------------------------|--------------------------------|
D|---------------------------------|--------------------------------|
A|-------9-9-9-7--4-----4---x-7--|------9-9-9-7--4-----4---x-7---|
E|-2-------------------------------|2-------------------------------|
   1 e % a 2 e & a 3 e & a 4 e & a |1 e & a 2 e & a 3 e & a 4 e & a |


G|---------------------------------|--------------------------------|
D|---------------------------------|--------------------------------|
A|-5-----5-----5-5/7-----7-----7-7/|------9-9-9-7--4-----4---------|
E|---------------------------------|2-------------------------------|
   1 e % a 2 e & a 3 e & a 4 e & a |1 e & a 2 e & a 3 e & a 4 e & a |
      second time through stop here ^

Repeat above. 
Prechorus (legato):

G|---------------------------------|--------------------------------|
D|-----------------6-------9-------|11--------------6-------9-------|
A|-----------------4-------7-------|9---------------4-------7-------|
E|-2-------------------------------|--------------------------------|
   1 e % a 2 e & a 3 e & a 4 e & a |1 e & a 2 e & a 3 e & a 4 e & a |


G|---------------------------------|--------------------------------|
D|-7---------------9---------------|11------------------------------|
A|-5---------------7---------------|9---------------9---9---9---9--|
E|---------------------------------|--------------------------------|
   1 e % a 2 e & a 3 e & a 4 e & a |1 e & a 2 e & a 3 e & a 4 e & a |

Rest for the first part of the chorus
Chorus:

G|---------------------------------|--------------------------------|
D|-------------------------2-2-2-2-|------------------------2-2-2-2-|
A|-----------------4-4-4-4---------|----------------4-4-4-4---------|
E|-2-2-2-2-------2-----------------|2-2-2-2-------2-----------------|
   1 e % a 2 e & a 3 e & a 4 e & a |1 e & a 2 e & a 3 e & a 4 e & a |


G|---------------------------------|--------------------------------|
D|---------------------------------|--------------------------------|
A|-5-5-5-5-------5-----------------|--------------------------------|
E|-----------------0-0-0-0-------0-|2-2-2-2-------2-2-2-2-2---------|
   1 e % a 2 e & a 3 e & a 4 e & a |1 e & a 2 e & a 3 e & a 4 e & a |


Nicki's verse you don't play again until 2:38
Verse at 2:38

G|--------------------------------|--------------------------------|
D|--------------------------------|--------------------------------|
A|------9-9-9-7--4-----4---x-----|------9-9-9-7--4-----4---x-----|
E|2-------------------------------|2-------------------------------|
  1 e % a 2 e & a 3 e & a 4 e & a |1 e & a 2 e & a 3 e & a 4 e & a |


G|---------------------------------|--------------------------------|
D|---------------------------------|--------------------------------|
A|-5-----5-----5-5/7-----7-----7-7/|------9-9-9-7-------------------|
E|---------------------------------|2-------------------------------|
   1 e % a 2 e & a 3 e & a 4 e & a |1 e & a 2 e & a 3 e & a 4 e & a |


Prechorus (Legato):

G|---------------------------------|--------------------------------|
D|-----------------6-------9-------|11--------------6-------9-------|
A|-----------------4-------7-------|9---------------4-------7-------|
E|-2-------------------------------|--------------------------------|
   1 e % a 2 e & a 3 e & a 4 e & a |1 e & a 2 e & a 3 e & a 4 e & a |


G|---------------------------------|--------------------------------|----------------|
D|-7---------------9---------------|11------------------------------|----------------|
A|-5---------------7---------------|9-------------------------------|----------------|
E|---------------------------------|--------------------------------|----------------|
   1 e % a 2 e & a 3 e & a 4 e & a |1 e & a 2 e & a 3 e & a 4 e & a |1 e & a 2 e & a |

Rest for the first part of the chorus
Chorus, play twice:

G|---------------------------------|--------------------------------|
D|-------------------------2-2-2-2-|------------------------2-2-2-2-|
A|-----------------4-4-4-4---------|----------------4-4-4-4---------|
E|-2-2-2-2-------2-----------------|2-2-2-2-------2-----------------|
   1 e % a 2 e & a 3 e & a 4 e & a |1 e & a 2 e & a 3 e & a 4 e & a |


G|---------------------------------|--------------------------------|
D|-7-7-7-7-------7-9-9-9-9---------|--------------------------------|
A|-5-5-5-5-------5-7-7-7-7---------|--------------------------------|
E|-------------------------------0-|2-2-2-2-------2-2-2-2-2---------|
   1 e % a 2 e & a 3 e & a 4 e & a |1 e & a 2 e & a 3 e & a 4 e & a |


---------------------------------------------------------------------------------------


Tom: A
                    F#m
 I've been here all night, (Ariana!) 
C#m          E        F#m     C#m       E
 I've been here all day, (Nicki Minaj!)
     D        E                     F#m
 And boy, you got me walkin' side to side (Let them know)

                 F#m
 I'm talkin' to ya
          C#m                          F#m
 See you standing over there with your body
         C#m                          D
 Feeling like I wanna rock with your body
         E                      F#m             C#m
 And we don't gotta think 'bout nothin' ('bout nothin')

               F#m
 I'm comin' at ya
          C#m                    F#m
 Cause I know you got a bad reputation
         C#m                           D
 Doesn't matter cause you give me temptation
        E                      F#m
 And we don't gotta think 'bout nothin' ('bout nothin')


       F#m           C#m     E      F#m
 These friends keep talkin' way too much
        C#m       E        D
 Saying I should give you up
       E                   F#m
 Can't hear them no, cause I...


                    F#m    C#m
 I've been here all night
            E        F#m     C#m     E
 I've been here all day,
     D        E                       F#m
 And boy, you got me walkin' side to side 

                    F#m    C#m
 I've been here all night
            E        F#m     C#m     E
 I've been here all day,
     D        E                       F#m
 And boy, you got me walkin' side to side  


                 F#m
 Been tryna hide it
       C#m                          F#m
 Baby what's it gonna hurt if they don't know?
        C#m                      D
 Makin' everybody think that we solo
         E                          F#m         C#m
 Just as long as you know that you got me (you got me)
 
                F#m
 And boy, I got ya
         C#m                              F#m
 Cause tonight I'm making deals with the devil
       C#m                        D
 And I know it's gonna get me in trouble
         E                         F#m
 Just as long as you know that you got me


       F#m           C#m     E      F#m
 These friends keep talkin' way too much
        C#m       E        D
 Saying I should give you up
       E                   F#m
 Can't hear them no, cause I...


                    F#m    C#m
 I've been here all night
            E        F#m     C#m     E
 I've been here all day,
     D        E                       F#m
 And boy, you got me walkin' side to side 

                    F#m    C#m
 I've been here all night
            E        F#m     C#m     E
 I've been here all day,
     D        E                       F#m
 And boy, you got me walkin' side to side 


NICKI MINAJ:
          F#m                 C#m            E
 This the new style with the fresh type of flow
 F#m                 C#m       E
 Wrist icicle, ride dick bicycle
      D                E
 Come true yo, get you this type of blow
    F#m
 If you wanna menage I got a tricycle

 F#m                            C#m
 All these bitches, hoes is my mini-me
              F#m                          C#m
 I be smoking so they call me young Nicki chimney
                 D                              E
 Rappers in they feelings cause they feelin' me
         F#m
 Uh, I-I give zero fucks and I got zero chill in me

 F#m                          C#m
 Kissing me, copped the blue box that say Tiffany
 F#m                           C#m
 Curry with the shot, just tell 'em to call me Stephanie
 D                     E
 Gun pop and I make my gum pop
                  F#m
 I'm the queen of rap, young Ariana run pop


ARIANA GRANDE
       F#m           C#m     E      F#m
 These friends keep talkin' way too much
        C#m       E        D
 Saying I should give you up
       E                   F#m
 Can't hear them no, cause I...


                    F#m    C#m
 I've been here all night
            E        F#m     C#m     E
 I've been here all day,
     D        E                       F#m
 And boy, you got me walkin' side to side 

                    F#m    C#m
 I've been here all night
            E        F#m     C#m     E
 I've been here all day,
     D        E                       F#m
 And boy, you got me walkin' side to side 


NICKI MINAJ:
          F#m                 C#m            E
 This the new style with the fresh type of flow
 F#m                 C#m       E
 Wrist icicle, ride dick bicycle
      D                E
 Come true yo, get you this type of blow
    F#m
 If you wanna menage I got a tricycle



Accueil | Tablatures | Compos | Blog | Forum | Annuaire | Contact