Tonight - Keith and Tex

Partition transcrite par tacsi
Instruments : Partition basse
verse:
G|----------------
D|-----------3333-  repeat
A|---5555-3-3-----
E|3-3-------------

chorus
G|-------------------------------
D|---5555----5555----------------  x3 
A|3-3-----3-3--------5555----5555
E|----------------3-3-----3-3----

G|------------------------77-5-3-2
D|---3333----3333----3333--------- X1 
A|5 5-----5-5-----5-5-------------
E|--------------------------------


Accueil | Tablatures | Compos | Blog | Forum | Annuaire | Contact