No sleep till Brooklin - Beastie boys

Partition transcrite par everton
Instruments : Partition guitare, Partition basse
g-----------------------
d-----------------------
a-----------------------
e---0-0---3--5---5--7--3

--------------------------------------------------------------------------------



Drop low e down to d

r=let it ring

NO SLEEP TILL Brooklynnnn!

intro

|--------------|
|--------------|
|--------------|x4
|1-1-4-6r-8-4--|
|1-1-4-6r-8-4--|
|1-1-4-6r-8-4--|


Foot on the pedal never ever false metal
Engine running hotter than a boiling kettle
|-----|
|-----|
|-----|
|-1-1-|
|-1-1-|
|-1-1-|

My job's ain't a job it's a damn good time
City to city 
I'm running my rhymes

|----------|
|----------|
|----------|
|8r-4r-1-1-|
|8r-4r-1-1-|
|8r-4r-1-1-|

On location touring around the nation
|----|
|----|
|----|
|1-1-|
|1-1-|
|1-1-|
Itchy trigger finger but a stable turntable
I do what I do best because 
I'm illing and able

|----------|
|----------|
|----------|
|8r-4r-1-1-|
|8r-4r-1-1-|
|8r-4r-1-1-|

Ain't no faking your money I'm taking
Going coast to coast watching all the girlies shaking
|----|
|----|
|----|
|1-1-|
|1-1-|
|1-1-|
While you're at the job working nine to five


|--------------|
|--------------|
|--------------|
|1-1-4-6r-8-4--|
|1-1-4-6r-8-4--|
|1-1-4-6r-8-4--|


No sleep 'til -


|--------------|
|--------------|
|--------------|
|1-1-4-6r-8-4--|
|1-1-4-6r-8-4--|           |-----|if you have a
M.C.A. get on the mic my man                    |--> |-----|whammy bar,

|-----|                                              |-1r--|push it down
|-----|                                              |-1r--|on this part
|-----|                                              |-1r--|=P
|-1-1-|
|-1-1-|
|-1-1-|
Born and bred Brooklyn U.S.A.
They all me Adam Yauch but I'm M.C.A.
Like a lemon to a lime a lime to a lemon
I sip the def ale with all the fly women
|-----|
|-----|
|-----|
|-1-1-|
|-1-1-|
|-1-1-|

Got limos, arena, TV shows
Autograph pictures and classy hos
|-----|
|-----|
|-----|
|-1-1-|
|-1-1-|
|-1-1-|
Step off homes get out of my way
Taxing little girlies form here to L.A.
|-----|
|-----|
|-----|
|-1-1-|
|-1-1-|
|-1-1-|
Waking up before I get to sleep
Cause I'll be rocking this party eight days a week


|--------------|
|--------------|
|--------------|
|1-1-4-6r-8-4--|
|1-1-4-6r-8-4--|
|1-1-4-6r-8-4--|


No sleep 'til -


|--------------|
|--------------|
|--------------|
|1-1-4-6r-8-4--|
|1-1-4-6r-8-4--|
|1-1-4-6r-8-4--|


|---------------------------------------------------------------|
|---------------------------------------------------------------|
|---------------------------------------------------------------|
|---1-------4--------------6-8-4----1-----4---------------6-8-4-|
|---1-------4--------------6-8-4----1-----4---------------6-8-4-|
|---1-------4--------------6-8-4----1-----4---------------6-8-4-|

 NO!  SLEEP!  TILL BROOKLYN!     NO! SLEEP! TILL BROOKLYN!


|---------------------------------------------------------------|
|---------------------------------------------------------------|
|---------------------------------------------------------------|
|---1-------4--------------6-8-4----1-----4---------------6-8-4-|
|---1-------4--------------6-8-4----1-----4---------------6-8-4-|
|---1-------4--------------6-8-4----1-----4---------------6-8-4-|

 NO!  SLEEP!  TILL BROOKLYN!     NO! SLEEP! TILL BROOKLYN!

======here*s the solo part that i cant play, but in the background its this till the
end======

|--------------|
|--------------|
|--------------|
|1-1-4-6r-8-4--| "no sleep till brooklyn" all the way to the end
|1-1-4-6r-8-4--|
|1-1-4-6r-8-4--|

Accueil | Tablatures | Compos | Blog | Forum | Annuaire | Contact