Andres - L7

Partition transcrite par everton
Instruments : Partition guitare, Partition basse
Intro and Verse:
E -7-7-7-7--9-10-9--|------------------

Chorus:
aaa.. aaa.. andre
E -3-3-3-3-3--------|-6-6-6-6-6-6------

E -7-7-7-7--9-10-9--|------------------

Bridge:
E -7-7-7-7--9-10-9--|------------------

FORMAT:
* play intro x8
* play chorus x4
* bridge x2
* repeat this all the way through

------------------------------------------------------------------------------------


Tom: E
Guitarra Base:

Riff 1:

e|---------------------------------
B|---------------------------------
G|---------------------------------
D|--2--2--x--x--2--2--2---4--5--4--
A|--2--2--x--x--2--2--2---4--5--4--
E|--0--0--0--0--0--0--0---2--3--2--


Riff 2:

e|------------------------------------------------------------------------
B|------------------------------------------------------------------------
G|------------------------------------------------------------------------
D|--3---3--3--3--3--3--3/7---7--7--7--7--7--7/2--2--x--2--2--2---2--2--2--
A|--3---3--3--3--3--3--3/5---7--7--7--7--7--7/2--2--x--2--2--2---2--2--2--
E|--1---1--1--1--1--1--1/5---5--5--5--5--5--5/0--0--0--0--0--0---0--0--0--



Guitarra Solo:

Riff A:

e|-----------------------------------
B|--12-12-12-12-12-12-12-12-12-12-12-
G|-----------------------------------

e|--------------------------------------------------------------
B|-10-10-10-12-12-12-12-12--10-10-10--12-12--10-10-12-12--10-10-
G|--------------------------------------------------------------



Riff B:
e|-------------------------------------------------
B|-10-10-10-10/11-11-11-11/12-12-12-12-12-12-12-12-
G|-------------------------------------------------

e|----------------------------------------------
B|-13-13-13-13-13-13-13-13/14-14-14-14-14-14-14-
G|----------------------------------------------


e|-----------------------------------------------------------------------------------
B|-14/15-15-15-15-15-15-15-15/16-16-16-16-16-16-16-16-16-16-16-16-16-16-16-16/17(29x)
G|-----------------------------------------------------------------------------------


Riff C:
e|---------------------------------------------------------------------------------
B|-15-15-15-15-15-15-15-15/16-16-16-16-16-16-16-16-16-16-16-16-16-16-16-16/17(29x)-
G|---------------------------------------------------------------------------------



Música:
Verso 1: Riff 1
Refrão 1: Riff 2
Ponte 1: Riff 1 + Riff A
Verso 2: Riff 1
Refrão 2: Riff 2
Ponte 2: Riff 1 + Riif A e Riff B (Riff B só depois do Riff A)
Verso 3: Riff 1
Refrão 3: Riff 2
Final: Riff 1, Riff C e depois Riff 1 (mais lento)

Accueil | Tablatures | Compos | Blog | Forum | Annuaire | Contact