Hallelujah - Leonard Cohen

Partition transcrite par loulou
Instruments : Partition guitare
fingerstyle de Hallelujah  


E|--3--------3----3--5--------5-----0--3--------3-----3--5---------5---5-------|
B|--------1----------------5-----------------1------------------5--------------|
G|-----0-------0--------5--------5--------0--------0---------5-----------------|
D|----------------2--0--------------------------------2--0-------------3-------|
A|--3----------------------------------3---------------------------------------|
E|-----------------------------------------------------------------------------|  




E|-----5-------5---5--3-----------3--------------0-----------------3-----------
B|-----------------------3-----3--------------1-----1-----------0-----0-------
G|--5-------5---------------4--------------0-----------0-----0-----------0-----
D|-------3---------------------------------------------------------------------
A|--------------------------------------3-------------------------------------
E|-----------------3--------------------------------------3--------------------


E|-3--------3-----3--5----5--7--------8---------8------0--8-----10----------8----
B|-------1-------------------------0--------10-----10--------10---------10-------
G|----0--------0--------5-------7--------9---------------------------------------
D|-------------------3-------5--------------------------------------------------
A|-3----------------------------------0-------------------8----------8-----------
E|--------------------------------------------------------------------------------


E|-10-----10--------10--12--------0--------1--------------------0-------|
B|-----0---------0-------------0--------3-----3--------1--------1-------|
G|-0----------0-------------0--------1--------------2-----2-----2-------|
D|-----------------------------------------------2-----------2--2-------|
A|--------------------------------------------0-----------------0-------|
E|----------------------0-----------------------------------------------|


E|--0--3--5--------5-------------------5--3--0-----------0-----------------|
B|--------------3--------3----------------------------1-----------1--------|
G|-----------5--------5---------------------------4------------4-----------|
D|--------3------------------3----------------------------------------2----|
A|-------------------------------------------0-----------------------------|
E|-------------------------------------------------------------------------|


E|--0--3--5--------5----------------5--3--0-----------1--0---------------------|
B|--------------3--------3----------------------1-----------3--------------1---|
G|-----------5--------5----------------------0--------------------0------------|
D|--------3-----------------3----------------------------------0--------0------|
A|----------------------------------------3--------3---------------------------|
E|----------------------------------------------------------3--------3---------|


E|-----------0-------------------3---------------------------------------|
B|--1-----------1-------------0-----0------------------------------------|
G|--------0--------0--------0----------0---------------------------------|
D|-----2-----------------------------------------------------------------|
A|--3--------------------------------------------------------------------|
E|-----------------------3-----------------------------------------------|


voilà pour la tablature je laisse une video à disposition pour que vous entendiez le rythme à avoir et la position de mes doigt sur chaque accord, bonne grattouille!   
ps: pour tout renseignement hésitez pas!  

https://www.youtube.com/watch?v=kbUDpRnQKow

Accueil | Tablatures | Compos | Blog | Forum | Annuaire | Contact