Eye without a face - Billy Idol

Partition transcrite par everton
Instruments : Partition guitare, Partition basse

G|----------------------------------|------------------|
D||----------------------------------|------------------|
A||----------------------------------|------------------|
E||--0-0-0-0-0-0-0-0-0-0-0-0-0-0-0-0-|------------------|
                                                       
----------------------------------|---------------------|
----------------------------------|---------------------|
----------------------------------|-------------------6-|
--0-0-0-0-0-0-0-0-0-0-0-0-0-0-0-0-|---------------7-9---|
                                                                           
------------------------|------------------------|------------------------|
------------------------|------------------------|------------------------|
--7-7-7-7-7---------7/--|--4-4-4-4-4-------------|------------------------|
------------------------|--------------------9/--|--4-4-4-4-4---------4/--|
                                                                           
------------------------|------------------------|------------------------|
------------------------|------------------------|------------------------|
--------------------4/--|--7-7-7-7-7---------7/--|--4-4-4-4-4-------------|
--7-7-7-7-7-------------|------------------------|--------------------9/--|
                                                                           
------------------------|------------------------|------------------------|
------------------------|------------------------|------------------------|
------------------------|--------------------4/--|--7-7-7-7-7---------7/--|
--4-4-4-4-4---------4/--|--7-7-7-7-7-------------|------------------------|
                                                                           
------------------------|------------------------|------------------------|
------------------------|------------------------|------------------------|
--4-4-4-4-4-------------|------------------------|--------------------4/--|
--------------------9/--|--4-4-4-4-4---------4/--|--7-7-7-7-7-------------|
                                                       
--------------------------|-------------------8-------|
--------------------------|----------------------9----|
---------------------7----|------------------------9--|
--5-5-5-5-5--5---------5--|--7-7-7-7-7--7-------------|
                                                        
---------------------------|---------------------------|
---------------------------|-------------------9-------|
------------------------7--|----------------------9----|
--5-5-5-5-5--5-----5/-9----|--7-7-7-7-7--7----------7--|
                                                       
--------------------------|-------------------8--4----|
--------------------------|------------------------4--|
---------------------7----|--2-2-2-2-2--2-------------|
--5-5-5-5-5--5---------5--|---------------------------|
                                                            
-----------------------------|-----------------------------|
-------------2/4-------------|-------------4/6-------------|
-------------------2---4-----|-------------------2---4-----|
--2-2-2-2-2---------------0--|--4-4-4-4-4---------------2--|
                                                                           
------------------------|------------------------|------------------------|
------------------------|------------------------|------------------------|
--7-7-7-7-7---------7/--|--4-4-4-4-4-------------|------------------------|
------------------------|--------------------9/--|--4-4-4-4-4---------4/--|
                                                                          
------------------------|------------------------|------------------------|
------------------------|------------------------|------------------------|
--------------------4/--|--7-7-7-7-7---------7/--|--4-4-4-4-4-------------|
--7-7-7-7-7-------------|------------------------|--------------------9/--|
                                                                           
------------------------|------------------------|------------------------|
------------------------|------------------------|------------------------|
------------------------|--------------------4/--|--7-7-7-7-7---------7/--|
--4-4-4-4-4---------4/--|--7-7-7-7-7-------------|------------------------|
                                                                           
------------------------|------------------------|------------------------|
------------------------|------------------------|------------------------|
--4-4-4-4-4-------------|------------------------|--------------------4/--|
--------------------9/--|--4-4-4-4-4---------4/--|--7-7-7-7-7-------------|
                                                         
---------------------------|-----------------8----------|
-------------------7-------|--------------------9-------|
----------------------7----|-----------------------9----|
--5-5-5-5-5--5----------5--|--7-7-7-7-7--7-----------7--|
                                                       
---------------------------|---------------------------|
---------------------------|-------------------9-------|
------------------------7--|----------------------9----|
--5-5-5-5-5--5-----5/-9----|--7-7-7-7-7--7----------7--|
                                                         
---------------------------|-----------------8----------|
---------------------------|--------------------9-------|
------------------------7--|-----------------------9----|
--5-5-5-5-5--5-----5/-9----|--7-7-7-7-7--7-----------7--|
                                                            
-----------------------------|-----------------------------|
-------------2/4-------------|-------------4/6-------------|
-------------------2---4-----|-------------------2---4-----|
--2-2-2-2-2---------------0--|--4-4-4-4-4---------------2--|
                                                                         
----------------------------------|------------------|------------------|
----------------------------------|------------------|------------------|
----------------------------------|------------------|------------------|
--0-0-0-0-0-0-0-0-0-0-0-0-0-0-0-0-|------------------|------------------|
                                                      
---------------------------|-------------------------|
--2-2-----2-2----0-2-2-----|--0-0-----0-0------------|
-----------------------2-0-|----------------------0--|
---------------------------|---------------2---3-----|
                                                      
---------------------------|-------------------------|
--2-2-----2-2----0-2-2-----|--0-0-----0-0------------|
-----------------------2-0-|----------------------0--|
---------------------------|---------------2---3-----|
                                                     
---------------------------|-------------------------|
--2-2-----2-2----0-2-2-----|--0-0-----0-0------------|
-----------------------2-0-|----------------------0--|
---------------------------|---------------2---3-----|
                                                      
---------------------------|-------------------------|
--2-2-----2-2----0-2-2-----|--0-0-----0-0------------|
-----------------------2-0-|----------------------0--|
---------------------------|---------------2---3-----|
                                                     
---------------------------|-------------------------|
--2-2-----2-2----0-2-2-----|--0-0-----0-0------------|
-----------------------2-0-|----------------------0--|
---------------------------|---------------2---3-----|
                                                      
---------------------------|-------------------------|
--2-2-----2-2----0-2-2-----|--0-0-----0-0------------|
-----------------------2-0-|----------------------0--|
---------------------------|---------------2---3-----|
                                                      
---------------------------|-------------------------|
--2-2-----2-2----0-2-2-----|--0-0-----0-0------------|
-----------------------2-0-|----------------------0--|
---------------------------|---------------2---3-----|
                                                           
---------------------------|-------7s----------------------|
--2-2-----2-2----0-2-2-----|----------5h7------------------|
-----------------------2-0-|--5-5---------5------5-----5---|
---------------------------|-----------------0-2---3-5---5-|
                                                                           
------------------------|------------------------|------------------------|
------------------------|------------------------|------------------------|
--7-7-7-7-7---------7/--|--4-4-4-4-4-------------|------------------------|
------------------------|--------------------9/--|--4-4-4-4-4---------4/--|
                                                                          
------------------------|------------------------|------------------------|
------------------------|------------------------|------------------------|
--------------------4/--|--7-7-7-7-7---------7/--|--4-4-4-4-4-------------|
--7-7-7-7-7-------------|------------------------|--------------------9/--|
                                                                           
------------------------|------------------------|------------------------|
------------------------|------------------------|------------------------|
------------------------|--------------------4/--|------------------------|
--4-4-4-4-4---------4/--|--7-7-7-7-7-------------|--4-4-4-4-4---------4/--|
                                                                               
------------------------|-------------------6-------|--------------------------|
------------------------|----------------------7----|--------------------------|
------------------------|------------------------7--|--------------------6--9/-|
--7-7-7-7-7---------9/--|--5-5-5-5-5--5-------------|--7-7-7-7-7--7------------|
                                                        
---------------------------|-----------------8----------|
---------------------------|--------------------9-------|
------------------------7--|-----------------------9----|
--5-5-5-5-5--5-----5/-9----|--7-7-7-7-7--7-----------7--|
                                                        
---------------------------|---------------------------|
---------------------------|---------------------------|
------------------------7--|--2-2-2-2-2--2-----2--2----|
--5-5-5-5-5--5-----5/-9----|------------------------0--|
                                                            
-----------------------------|-----------------------------|
-------------2/4-------------|-------------4/6-------------|
-------------------2---4-----|-------------------2---4-----|
--2-2-2-2-2---------------0--|--4-4-4-4-4---------------0--|
                                                            
-----------------------------|-----------------------------|
-------------2/4-------------|-------------4/6-------------|
-------------------2---4-----|-------------------2---4-----|
--2-2-2-2-2---------------0--|--4-4-4-4-4---------------2--|
                                                      
----------------------------------|------------------|
----------------------------------|------------------|
----------------------------------|------------------|
--0-0-0-0-0-0-0-0-0-0-0-0-0-0-0-0-|------------------|
                                                                         
----------------------------------|------------------|------------------||
----------------------------------|------------------|------------------||
----------------------------------|------------------|------------------||
--0-0-0-0-0-0-0-0-0-0-0-0-0-0-0-0-|------------------|------------------||



---------------------------------------------------------------------------------------

Versão Simplificada

Tom: E
E            C#m
I'm all out of hope
                G#m               B
One more bad dream could bring a fall
E               C#m
When I'm far from home
                       G#m
Don't call me on the phone
                     B
To tell me you're alone
E              C#m
It's easy to deceive
               G#m
It's easy to tease
                   B
But hard to get release

Refrão:
A                B
Les yeux sans visage eyes without a face
A                B
Les yeux sans visage eyes without a face
A                B                    F#m
Les yeux sans visage eyes without a face
               G#m7                      E
Got no human grace your eyes without a face.

( C#m  G#m  B )

E                C#m
I spend so much time
                    G#m
Believing all the lies
                   B
To keep the dream alive
E              C#m
Now it makes me sad
                    G#m
It makes me mad at truth
                     B
For loving what was you

(refrão)
A                B
Les yeux sans visage eyes without a face
A                B
Les yeux sans visage eyes without a face
A                B                    F#m
Les yeux sans visage eyes without a face
               G#m7                      E
Got no human grace your eyes without a face.

E|-----------------------------------------------------------------|
B|------9--9------9--9-------9--7------7--7--6------7--6------7--6-|
G|------9--9------9--9-------9--7------7--7--6------7--6------7--6-|
D|------9--9------9--9-------9--7------7--7--6------7--6------7--6-|
A|--7-7-7--7--7-7-7--7--7-7--7--5--5-5-5--5--4--5-5-5--4--5-5-5--4-|
E|-----------------------------------------------------------------|


When you hear the music you make a dip
Into someone else's pocket then make a slip.
Steal a car and go to Las Vegas oh, the gigolo pool.

Hanging out by the state line,
Turning holy water into wine
Drinkin' it down, oh
I'm on a bus on a psychedelic trip
Reading murder books tryin' to stay hip.
I'm thinkin' of you you're out there so
Say your prayers.
Say your prayers.
Say your prayers.

E             C#m
Now I close my eyes
             G#m
And I wonder why
            B
I don't despise
E            C#m
Now all I can do
                 G#m
Is love what was once
              B
So alive and new
                         F#m
But it's gone from your eyes
                B
I'd better realise

Refrão:
A                B
Les yeux sans visage eyes without a face
A                B
Les yeux sans visage eyes without a face
A                B                    F#m
Les yeux sans visage eyes without a face
               G#m7                      E
Got no human grace your eyes without a face.
               G#m7                      E
Such a human waste your eyes without a face

And now it's getting worse.
                                                                           

Accueil | Tablatures | Compos | Blog | Forum | Annuaire | Contact