Feel it - Passafire

Partition transcrite par everton
Instruments : Partition guitare, Partition basse
G|--------------------------------|
D|--------------------------------|
A|-2~~------2~~--------3-2-3------|
E|-----3~~-------3~~---------0-2--|
B|--------------------------------|

G|------------------------------------------------------------------|
D|------------------------------------------------------------------|
A|------------------------------------------------------------------|
E|-------66------6-------66-------6-----44------4-------44-----4----|
B|-----4---44--4---4---4----44--4---4--2--22--2---2--22---22--2--2--|


----------------------------------------------------------------------------------------


This is pretty much the whole song. You can also hear some minor
picking while playing each chord in the beginning which is not
hard to figure out at all (Strum Down once and picking back Up).

The Rhythm for the rest of the song is just downstrokes.

|---1-1--1-1---|---1-1--1-1---|---6-6--6-6---|---6-6--6-6---|
|---1-1--1-1---|---1-1--1-1---|---8-8--8-8---|---8-8--8-8---|
|---1-1--1-1---|---1-1--1-1---|---8-8--8-8---|---8-8--8-8---|
|---3-3--3-3---|---3-3--3-3---|---8-8--8-8---|---8-8--8-8---|
|---3-3--3-3---|---3-3--3-3---|---6-6--6-6---|---6-6--6-6---|
|---1-1--1-1---|---1-1--1-1---|---6-6--6-6---|---6-6--6-6---|


|---------------------|---6-6--6-6---|---6-6--6-6---|----------------|
|---------------------|---6-6--6-6---|---6-6--6-6---|----------------|
|---10--8--6--5h6p5---|---6-6--6-6---|---6-6--6-6---|---8--6--5------|
|---------------------|---8-8--8-8---|---8-8--8-8---|------------6---|
|---------------------|---8-8--8-8---|---8-8--8-8---|----------------|
|---------------------|---6-6--6-6---|---6-6--8-8---|----------------|


                           Then Back to the Top



PG SP BRASIL

Accueil | Tablatures | Compos | Blog | Forum | Annuaire | Contact