Emmène-moi - Boulevard des airs

Partition transcrite par loulou
Instruments : Partition guitare
capot en 5 

la partie intro ou pré-refrain:

E|----0------------------------------------------------------------------|
B|-------------x-1--0--------030---------1-------x-1-1--------131--------|
G|-------2-----x-2--0------0-------0--------2----x-2-0------0-----0------|
D|----------2--x-2--0----0-----------0--------3--x-3-2----2---------2----|
A|----0----------------------------------3--------------3----------------|
E|---------------------3-------------------------------------------------|

couplet:

E|-----0-----------------------------------------------------------------|
B|-------------x-1-0----------030----------------------------------------|
G|--------2----x-2-0--------0-----0--------------------------------------|
D|----------2--x-2-0------0---------0------------------------------------|
A|-----0-----------------------------------------------------------------|
E|---------------------3-------------------------------------------------|

refrain:

E|--1---------x-1--0----------------------------------------------------------|
B|-----2------x-3--0------------1--x-1---0---------x--0-1--------1--x-1-------|
G|-------3----x-2--0---------2-----x-2------1------x--1-2------2----x-2-------|
D|--0---------------------2--------x-2--------0----x--0-2----2------x-2-------|
A|---------------------0-----------------2-----------------0------------------|
E|----------------------------------------------------------------------------|


l'arpege rythmique se repéte  
pour les accords 

intro

la mineur: 002210
sol      : 320033 
fa mineur: x3321x 
do majeur: 032010 

le couplet: 

la mineur: 002210  
sol : 320033 

refrain 

re mineur: xx0321 
la mineur: 002210 
MI 7     : 020100 
la mineur: 002210 

la chanson se joue intro x2 + couplet x8 +refrain x4 pour vous aider j'ai mis une petite
video pour vous donner une idée du rendu 

https://www.youtube.com/watch?v=n7c7iXK9YqI
pour toute remarque hésiter pas a m’écrire! 

Accueil | Tablatures | Compos | Blog | Forum | Annuaire | Contact