Them never love poor Marcus - Johnny Clarke

Partition transcrite par stclair
Instruments : Partition basse
Intro

G|-------------------------------------------------|   
D|-------------------------------------------------|   
A|--7--5—-7--5----7—-5—7--5------------------------|   
E|-------------7------------7----------------------|  

Riff 1

G|----------------------------------------------------|   
D|----------------------------------------------------|   
A|--7-5-------7-5-------------------------------------|   
E|-----7-5-0-----7-5-0--------------------------------|


Riff 2

G|----------------------------------------------------|   
D|----------------------------------------------------|   
A|--777777-7-------777777-7-5-------------------------|   
E|----------5-7---------------7------------------------|


Riff 3

G|-------------------------------------|   
D|-------------------------------------|   
A|------5------------------------------|   
E|--5-7--------------------------------|




Absolute killer Rhythm!! Play around and have fun!! You’re welcome.

(check out King Tubby’s dub to this also).

Accueil | Tablatures | Compos | Blog | Forum | Annuaire | Contact