Brilho oculto - Mato Seco

Partition transcrite par everton
Instruments : Partition basse
Intro 2x

G|------------------------------------------|
D|-------------------3-------3--------------|
A|--2-------2------------5-----7------------|
E|------3-----------------------------------|

VERSOS
G|----------------------------------------------------------------------|
D|---2---2-----------2-2-----2-----------3---3--------3-3-----3---------|
A|-----2----2--------------2---------------3----3-----------3-----------|
E|----------------------------------------------------------------------|


BRAZILIAN REGGAE SP JD.IMPERADOR

Accueil | Tablatures | Compos | Blog | Forum | Annuaire | Contact