Them belly full (but we hungry) - Bob Marley and the wailers

Partition transcrite par skafortrock
Instruments : Partition guitare
Couplet :   La m X2, Fa X2, La m X2, Fa X1, Sol X1
Répétez deux fois par couplet.

Refrain :    La m X2, Sol X2, La m X4
Répétez deux fois par refrain.

La m 577555
Fa   133211
sol  355433
Partition transcrite par Simpan
Instruments : Partition guitare, Partition basse
      INTRO
G ||-------------------------------------------------------|| 
D ||---------5----7------7-5--------7-----5--------7-5-----|| 
A ||---7---5----7------------7----7-----5------3--------7--|| 
E ||7----------------------------------------3-------------|| 

        CHORUS Am x2 F x2 Am x2 F x1 G x1
G ||--------------------------------------------------|| 
D ||--------------------------------------------------|| 
A ||---7-5----------------------7-5----------8-8-7----|| 
E ||-O-----7--5-5---3-3-2-----O------7--5-5-----------|| 

        Am x2 G x2 Am x4 
     "We're gonna dance..."   
G ||----------------------------------------------||
D ||-------------------------7---------7----------||
A ||-O-5-O-5------------5------7-O-------7-O------||
E ||-----------33333------------------------------||

         Am x2 G x2 Am x4 
        "Forget your troubles..."
G ||----------------------------------------------||
D ||-------------------7--------7-----------------||
A ||-O-555--------5------7-O------7-O-------------||
E ||--------333-----------------------------------||
          Am x2 G x2 Am x4 
          "We're gonna chuck...."
G ||----------------------------------------------||
D ||------------------------7---------------------||
A ||-O-555--------------------7-O-----------------||
E ||--------333----3--5---------------------------||





Am: 577555
F: 133211
G: 355433
Partition transcrite par IBO
Instruments : Partition guitare

      INTRO 
G ||-----------------------------------------------------------||  
D ||------------------- ---------------------------------------||  
A ||----7-----5-----3----Am----7----5----3----Am---------------||  
E ||-5-----3----1------------5---3----1------------------------||

  
        CHORUS               Am x2       Fx1   Gx1    
                             Na-na na na-na na na na;
                             Na-na na na-na na na na;

   Am x2            F      G     
   Them belly full, but we hungry;
   A hungry mob is a angry mob.
   A rain a-fall, but the dutty tough;
   A yot a-yook, but d' yood no 'nough
        
        Am x4              G x2          Am x4        
        You're gonna dance to Jah music, dance;
        We're gonna dance to Jah music, dance, oh-ooh!

                     Am x2    Gx2          Am x4  
                  Forget your troubles and dance!
                  Forget your sorrows and dance!
                  Forget your sickness and dance!
                  Forget your weakness and dance!

         Am x2             F      G  
        Cost of livin'  gets so high,
        Rich and poor they start to cry:  
        Now the weak must get   strong;
        They say, "Oh, what a tribulation!"
        Them belly full, but we hungry;
        A hungry mob is a angry mob.
        A rain a-fall, but the dutty tough;
        A pot a-yook, but d' yood* no 'nough  

      Am x4             G x2        Am x4      
      We're gonna chuck to Jah music - chuckin';
      We're chuckin' to   Jah music - we're chuckin'
  
  
Lam 577555 
Fa  133211 
Sol 355433 
        
Bonne gratte à tous!!!
Partition transcrite par Mathieu
Instruments : Partition guitare

La#m/La#m/Fa#/Fa

et le changement ("forget your ...and dance...")

La#m/La#m/Sol#/Sol#
La#m/La#m/La#m/La#m
           
Partition transcrite par jaCo
Instruments : Partition basse
http://www.jahlive.ch - adrien@jahlive.ch

Intro :

G|------------3---|2---------------|----------------|2---------------|
D|--2----5--1-----|--2-------------|--2-------------|--2-------------|
A|0----3----------|----0-----------|0------5----3---|----0-----------|
E|----------------|----------------|-----3----1-----|----------------|


Chorus :

G|----------------|----------------|----------------|----------------|
D|-20-------------|-20------3---3-2|-20-------------|-20------3---3-2|
A|0--3--0---------|0--3--03--------|0--3--0---------|0--3--03--------|
E|-------3-1---1-0|----------------|-------3-1---1-0|----------------|


Variante :

G|----------------|-------------2--|
D|--20------------|--20-------2----|
A|0----0----------|0----0---0------|
E|--------333-----|----------------|


Variante solo guitare :

G|2---------------|---------2------|
D|--2-------------|-----------2----|
A|----0-----------|0------------0--|
E|--------333--0-3|----------------|


Partition transcrite par everton
Instruments : Partition basse
Intro:
G||-----------------3--------------------------------------|| 
D||---------5----1-----------------------------------------||
A||---7---3------------------7------5------3---------------||
E||5----------------------5------3------1------------------||

Refrão:
G||--------------------------------------------------|| 
D||--------------------------------------------------|| 
A||---7-5-3----------------7-5-3-3-3-8-8-7-----------|| 
E||-5-------5-3-1-1-0----5---------------------------|| 

     "We're gonna dance..."   
G||----------------------------------------------||
D||-------------------------7---------7----------||
A||-O-5-O-5------------5------7-O-------7-O------||
E||-----------33333------------------------------||

        "Forget your troubles..."
G||----------------------------------------------||
D||-------------------7--------7-----------------||
A||-O-555--------5------7-O------7-O-------------||
E||--------333-----------------------------------||

          "We're gonna chuck...."
G||----------------------------------------------||
D||------------------------7---------------------||
A||-O-555--------------------7-O-----------------||
E||--------333----3--5---------------------------||


PG SP BRASIL

Accueil | Tablatures | Compos | Blog | Forum | Annuaire | Contact