Sad to know - Gregory Isaacs

Partition transcrite par broz
Instruments : Partition guitare, Partition basse
     Album : Night Nurse

| / / D / / / D / / / G / / / G / |
|---------------------------------|
|-------------------5---5-5-4-2---|
|-5---------------5---------------|
|---------------------------------|
Partition transcrite par delu91
Instruments : Partition basse
  RE              SOL             RE              SOL
G|----------------------------------------------------------------|
D|----------------5-----5-4---2-------------------5-5---5-4---2---|
A|5--(5)--------------------------5-------------------------------|
E|----------------------------------------------------------------|

(5) only first time

Accueil | Tablatures | Compos | Blog | Forum | Annuaire | Contact