African - Peter Tosh

Partition transcrite par bud
Instruments : Partition guitare
   intro   F F# G
  G                          F                                    G
Don't care where u come from  as long as you're...   you're an african
  F                   G                                 
no mind your....                   the identity of an african 
etc....
Partition transcrite par chilmaur
Instruments : Partition basse
G|--------|--------|--------|--------|
D|3-4-----|3-4-----|3-4-----|3-4-----|INTRO
A|--------|--------|--------|--------|
E|----3---|----3---|----3---|----3---|


G|-----1--|3---3---|----3---|--------|
D|-2----0-|-3----2-|------2-|--------|RIFF 1 X 2
A|3-------|--------|0000----|0000----|
E|--------|--------|--------|--------|


G|--------|--------|--------|--------|--------|--------|-------0|
D|--------|--------|--------|--------|--------|--------|--------| RIFF 2
A|----0---|--------|----0---|--------|-----0--|--------|22222---|
E|--13-1--|3333----|--13-1--|3333----|--13-1--|3333----|-----13-|


Accueil | Tablatures | Compos | Blog | Forum | Annuaire | Contact