www.broz-reggae-tabs.com
Imprimer

Fruit de la passion - Francky Vincent

Partition transcrite par ElviDo
Instruments : Partition guitare
Accords : F#m / D / Bm / E

Retranscription tablature de la partie cuivre 

E|----------------------------------------------------------------|
B|-------14-12----12----12----12~-------14-12----12----12---------|
G|-11-14-------14----14----14-----11-14-------14----14----14-11~--|
D|----------------------------------------------------------------|
A|----------------------------------------------------------------|
E|----------------------------------------------------------------|
  fa# la do#si la si la si la si fa# la do#si la si la si la fa#   en notes

Le petit riff de guitare

E|-14-12---------------------14-12----------------------|
B|-------14-12----12----12~--------14-12----12----------|
G|-------------14----14------------------14----14-11~---|
D|------------------------------------------------------|
A|------------------------------------------------------|
E|------------------------------------------------------|

Je sais pas trop pourquoi je poste ├ža

Pour d'autres tabs : campier@gmail.com