www.broz-reggae-tabs.com
Imprimer

Black Roses - Barrington Levy

Partition transcrite par bruno.serusclat
Instruments : Partition basse

G|---65-----65----------------------|
D|-3----333---------43-----43-1-----|
A|----------------1----111----------|
E|----------------------------------|


Partition transcrite par doriginal
Instruments : Partition basse

G|----------------------------------|-----------------------------------|
D|-----11-10------------11-10-------|-----------------------------------|
A|-8------------8-8-8------------8--|-----9-8---------------9-8-------6-|
E|----------------------------------|-6-------------6-6-6---------------|

A bien ├ęcouter pour le feeling