www.broz-reggae-tabs.com
Imprimer

The heathen - Bob Marley and the wailers

Partition transcrite par broz
Instruments : Partition guitare, Partition basse


Intro guitare 1:
|---------------------------------|---------------------------------|
|---------------------10b12-10----|---------------------------------|
|-7---9------------------------12-|-9-------------------------------|
|---------------------------------|------------------------------9--|
|---------------------------------|---------------------------------|
|---------------------------------|---------------------------------|
b=bend

Intro guitare 2:
|-----753-753-753-----------------|-----753-753-753-----------------|
|---------------------------------|---------------------------------|
|---------------------------------|---------------------------------|
|---------------------------------|---------------------------------|
|---------------------------------|---------------------------------|
|---------------------------------|---------------------------------|


Riddim basse guitare :
| / / Em/ / / Em/ / / C / / / Bm/ |
|---------------------------------|
|---222-22-22-------------5---2---|
|-2-------------------3-----------|
|---------------------------------|
Partition transcrite par marce
Instruments : Partition basse
Em |Em |Cmaj7 |G6 ...

G------------------------------------------------
D------------------------------------------------
A------7-7-7-7-7--------10--7--------------------
E---7----------------8---------------------------

G------------------------------------------------
D------------------------------------------------
A------7-7-7-7-7-----3---------------------------
E---7-------------------3-3-3--------------------

try this!!

-marce-
Partition transcrite par bemba
Instruments : Partition guitare
Em//C/G/

C'est ├ža pendant toute la chanson, et rien d'autre. Feelin'.
Partition transcrite par JahMatit
Instruments : Partition basse
G ---------------------- 
D ----------------------
A ------0-0-0-0-0----3-0
E -0-3-------------3----
Partition transcrite par jkaraoui
Instruments : Partition guitare
Bridge Intro :
e|-------------------------------------------------------------------------|
B|-----------------------11/12---10----------------------------------------|
G|-------7----9--------------------------12----9---------------------------|
D|----9--------------------------------------------------------------------|
A|-------------------------------------------------------------------------|
E|-------------------------------------------------------------------------|


Bridge Fin :
e|-------------------------------------------------------------------------|
B|-------------------------------------------------------------------------|
G|-------------------------------------------------------------------------|
D|-----------------------4/5-----3-----1-----------------------------------|
A|-------1----3-----------------------------3------------------------------|
E|----3--------------------------------------------------------------------|


Accords :

Em (Mi mineur) x2 779987
C  (Do)        x1 335553
Bm (Si mineur) x1 224432    

Partition transcrite par FyahBurn
Instruments : Partition basse
G|-------------------------------------------|
D|-------------------------------------------|
A|---7777---10--------7777----10--7----------|
E|-7------8----10---7-------8-------10-8-7---|