www.broz-reggae-tabs.com
Imprimer

Musique ! - Narayana

Partition transcrite par Sequoyah
Instruments : Partition basse
Un morceau excellent


Intro:
G|-------------------------------------------|------------------------------------------|
D|-------------------------------------------|------------------------------------------|
A|----------------------------5-5-5----------|------------------------------------------|
E|3---3---6-5-3---3---6---3------------------|3---3---6-5-3---3---6---3---2-2-2---------|

G|-------------------------------------------|------------------------------------------|
D|-------------------------------------------|------------------------------------------|
A|----------------------------5-5-5----5-----|------------------------------------------|
E|3---3---6-5-3---3---6---3--------------6-5-|3---3---6-5-3---3---6---3---2-2-2---------|


Couplet 1:
G|----------------------------------|-----------------------------------|
D|----------------------------------|-----------------------------------|
A|5---5-----------------------------|5---5------------------------------|x8
E|--------5---3-------3---5---3-----|--------5---5---3------------------|


Refrain:
G|--------------------------------|--------------------------------|
D|--------------------------------|--------------------------------|
A|--------------------------------|5-------5-----------------------|
E|2-------2-------3---5---3-------|----------------3---5---3-------|

G|--------------------------------|--------------------------------|
D|--------------------------------|--------------------------------|
A|--------------------------------|--------------------------------|
E|6-------6-------6---5---3-------|2-------2-------3---5---3-------|
                                                                    x2

Post refrain:
G|-------------------------------------------|------------------------------------------|
D|-------------------------------------------|------------------------------------------|
A|----------------------------5-5-5----5-----|-------------------------------------5----|
E|3---3---6-5-3---3---6---3--------------6-5-|3---3---6-5-3---3---6---3---2-2-2------6--|

G|-------------------------------------------|------------------------------------------|
D|-------------------------------------------|------------------------------------------|
A|----------------------------5-5-5----5-----|------------------------------------------|
E|3---3---6-5-3---3---6---3--------------6-5-|3---3---6-5-3---3---6---3---2-2-2---------|


Bridge:
G|--------------------------------|---------------------------------------|
D|--------------------------------|----------------------------4-----7----|
A|----------------4-----5-----4---|----------------4-----5---------------5|
E|5-----------------------------6-|5--------------------------------------|

G|--------------------------------|---------------------------------------|
D|--------------------------------|---------------------------------------|
A|----------------4-----5-----4---|----------------4-----5----------------|
E|5-----------------------------6-|5--------------------------------------|


Couplet 2:
G|----------------------------------|-----------------------------------|
D|----------------------------------|-----------------------------------|
A|5---5-----------------------------|5---5------------------------------|x4
E|--------5---3-------3---5---3-----|--------5---5---3------------------|


Refrain:x2
G|--------------------------------|--------------------------------|
D|--------------------------------|--------------------------------|
A|--------------------------------|5-------5-----------------------|
E|2-------2-------3---5---3-------|----------------3---5---3-------|
                                                                    
G|--------------------------------|--------------------------------|
D|--------------------------------|--------------------------------|
A|--------------------------------|--------------------------------|
E|6-------6-------6---5---3-------|2-------2-------3---5---3-------|
                                                                    

Post refrain:
G|-------------------------------------------|------------------------------------------|
D|-------------------------------------------|------------------------------------------|
A|----------------------------5-5-5----5-----|-------------------------------------5----|
E|3---3---6-5-3---3---6---3--------------6-5-|3---3---6-5-3---3---6---3---2-2-2------6--|

G|-------------------------------------------|------------------------------------------|
D|-------------------------------------------|------------------------------------------|
A|----------------------------5-5-5----5-----|------------------------------------------|
E|3---3---6-5-3---3---6---3--------------6-5-|3---3---6-5-3---3---6---3---2-2-2---------|


Couplet 3:
G|----------------------------------|-----------------------------------|
D|----------------------------------|-----------------------------------|
A|5---5-----------------------------|5---5------------------------------|x12
E|--------5---3-------3---5---3-----|--------5---5---3------------------|


Refrain:x2
G|--------------------------------|--------------------------------|
D|--------------------------------|--------------------------------|
A|--------------------------------|5-------5-----------------------|
E|2-------2-------3---5---3-------|----------------3---5---3-------|

G|--------------------------------|--------------------------------|
D|--------------------------------|--------------------------------|
A|--------------------------------|--------------------------------|
E|6-------6-------6---5---3-------|2-------2-------3---5---3-------|


Post refrain:
G|-------------------------------------------|------------------------------------------|
D|-------------------------------------------|------------------------------------------|
A|----------------------------5-5-5----5-----|-------------------------------------5----|
E|3---3---6-5-3---3---6---3--------------6-5-|3---3---6-5-3---3---6---3---2-2-2------6--|

G|-------------------------------------------|------------------------------------------|
D|-------------------------------------------|------------------------------------------|
A|----------------------------5-5-5----5-----|------------------------------------------|
E|3---3---6-5-3---3---6---3--------------6-5-|3---3---6-5-3---3---6---3---2-2-2---------|

Aller a+ les amateurs de Narayana, le meilleur groupe que je connaisse (qui est
malheureusement trop m├ęconnus:'( )