Jah Fire - Hugh Mundell

Partition transcrite par JahOne86
Instruments : Partition basse
Intro (2x) :

G|--------------------------|-------------------------|
D|--------------------------|-------------------------|
A|----5-5-------------------|----5-5------------------|
E|--5-----------------------|--5----------------------|

Song :

G|--------------------------|-------------------------|
D|---------------------7----|-------------------------|
A|----5-5---5-----2--5----5-|----5-5-5-5----2-2-------|
E|--5-----------5-----------|--5----------------5-----|

https://www.youtube.com/watch?v=zxZ6OeZzneo

Turn up the bass
Jah Love Protect us 

Accueil | Tablatures | Compos | Blog | Forum | Annuaire | Contact