Don't go - Brimstone

Partition transcrite par JahOne86
Instruments : Partition basse
Easy and heavy bass line! Solid Riddim from the 80's! It may not be correct but it sounds
pretty well !

1981 

Verse :

G|----------------------------------------------------------------------|
D|----------------------------------------------------------------------|
A|---5---5-7-------3-5---5-7-12--12-------------------------------------|
E|-----------5---5------------------------------------------------------|

Variation :

G|----------------------------------------------------------------------|
D|----------------------------------------------------------------------|
A|---5---5-7-------3-5---5-7-12-----------------------------------------|
E|-----------5---5---------------5--------------------------------------|

Here's the tune on dailymotion. Hope I can share this here, I don't see any youtube link
on other topic. Just let me know... Peace !
http://www.dailymotion.com/video/xhdrl1_brimstone-don-t-go_music

Jah Love Protect Us


Accueil | Tablatures | Compos | Blog | Forum | Annuaire | Contact