Muito querer - Mato Seco

Partition transcrite par everton
Instruments : Partition guitare, Partition basse
Introdução

G|-------|-------|-------|-----------------------|
D|-------|-------|-------|-----------------------|
A|---5-7-|---5-7-|---5-7-|---5-7-----------------|
E|-7-----|-7-----|-7-----|-7-----7---------------|



Base

G|------------------------------------------------------------|
D|------------------------------------------------------------|
A|-7-7---7-10-10-10---10-10-9-9-7-7--------5-5-5-------5-5-5--|
E|----------------------------------7-7--7-------7-7-7--------|


-------------------------------------------------------------------------------------

Tom: G

E|-------------------------------------------------
B|-------------------------------------------------
G|------------------------------------------------- 2x
D|--7h9---9-10-9---9-10-9--------------------------
A|--------------------------7/9---9-10-9---9-10-9--
E|-------------------------------------------------


E|--------|----------------------------------------
B|--------|----------------------------------------
G|--------|----------------------------------------
D|--7h9---|--12-10-9---------------9---------------
A|--------|----------10---7-9-10-7-----------------
E|--------|----------------------------------------


(Em, Bm)



PG SP BRASIL

Accueil | Tablatures | Compos | Blog | Forum | Annuaire | Contact