A sombra da Maldade - Cidade Negra

Partition transcrite par everton
Instruments : Partition guitare, Partition basse
intro:
G|------------------------------------------------
D|---------------------------------------------------------1
A|------------------1-----------------1-33-1-33-1-33-1-3-1--33-1-33-1-33-1-3-1
E|-33-1-33-1-33-1-3--33-1-33-1-33-1-3------------------------

G|--------------------------------------------------
D|---------------------------------------------------------1-3/5-5-3-3-1-1-
A|------------------1-----------------1-33-1-33-1-33-1-3-----------------4-3-
E|-33-1-33-1-33-1-3--33-1-33-1-33-1-3---------------------------------------



                      outra versão baixo


G|--------------------------------------------------------------------------
D|--------------------------------------------------------------------------
A|----------------------3-1-3----5-5-3-----------------3-1-3----5-5-3-------
E|--------3--3-1-3----------------------6-5-3-1-3-----------------------6-5-


G|--------------------------------------------------------------------------
D|-5-3-5-3-5-3-----3-5-3-5-3-5-3-----3-----------------------------------3--
A|-------------------5---------------------5----3-3-3-3-----3-5-5-5-5---5---
E|-----------------------------------------------------------6--------------


G|--------------------------------------------------------------------------
D|---------------3-----------------------3---------------------------3------
A|-------------5-----------------------5-----3-3-3-3-----3-5-5-5-5--5-------
E|-3-1-3-1-3-1------------3-1-3-1-3-1-----------------6---------------------


   Eu sei que ela nunca mais apareceu. (2x)
G|--------------------------------------------------------------------------
D|-5-3-5-3-5-3-----3-5-3-5-3-5-3-----3-----------------------------------3--
A|-------------------5---------------------5----3-3-3-3-----3-5-5-5-5---5---
E|-----------------------------------------------------------6--------------
   
G|--------------------------------------------------------------------------
D|---------------3-----------------------3---------------------------3------
A|-------------5-----------------------5-----3-3-3-3-----3-5-5-5-5--5-------
E|-3-1-3-1-3-1------------3-1-3-1-3-1-----------------6---------------------

  Eu sei (eu sei) ..... êêêê
G|-----------------------------------------------------------------------
D|-------------------3---------------------3-----------------------------
A|----------------5---------------------5-----3-3-3-3----3-5-5-5-5-------
E|-3-1-3-1-3-1---------3-1-3-1-3-1---------------------6-----------------

G|----------------------------------------------------12-----------------
D|------------------------------------------------------12---------------
A|--------8--10-8-10-8-10-8------8--10-8-10-8-10-8--------10\------------
E|----10---------------------10------------------------------------------


Refrão
G|-------------------------------------------------------------------------
D|---------7-7-7-7-7----------5-5-5-5-5----------7-7-7-7-7----------5-5-5--
A|-5-5-5---------------3-3-3---------------5-5-5--------------3-3-3--------
E|-------------------------------------------------------------------------

G|--------------------------5---------
D|---------7-----------------------3--
A|---5-5-5-----8-5\3-3-3-------5------
E|------------------------------------


---------------------------------------------------------------------------------


Tom: A#
Intro: Gm  Cm7  Dm7

   Gm                           Cm7
Eu sei que ela nunca mais apareceu

Na minha vida
      Dm7
Minha mente

     Gm
Novamente
Eu sei que o que ficou
             Cm7
Não desapareceu
A minha vida
Muda
Dm7
Sempre
      Gm
Lentamente
Como a lua,
                    Cm7
Que da voltas pelo céu
E mexe,
               Dm7
Tanto com o presente
             Gm
Quanto o ausente
Eu sei, eu sei, eu sei,
                    Cm7
Eu sei, eu sei, eu sei,
Não sou vidente
            D#m7
Mas sei o rumo
            Gm
Do seu coração
   Dm7
Permita
        Cm7
Que o amor
Invada sua casa,
    Dm7
Coração
       Cm7
Que o amor
Invada sua casa,
    Dm7
Coração

       Cm7
Que o amor
Invada sua casa,
Gm
Saia, não vaia,
               Cm7
Não caia na navalha
               Dm7
Que corta a tua carne
          Gm
E sangra tudo o que você precisa
     Cm7     Dm7     (Gm Cm7 Dm7)
Descobrir... eeee...



PG SP BRASIL

Accueil | Tablatures | Compos | Blog | Forum | Annuaire | Contact