Burden of shame - UB40

Partition transcrite par everton
Instruments : Partition guitare, Partition basse
    intro/riff 1
  G|-----------------------------------------|
  D|-------777--------------------4-0h40h40--|
  A|--9999-----5-555-555------555------------|
  E|---------------------7777----------------|

  G|-----------------------------------------|
  D|-------777--------------------4-0h40h40--|
  A|--9999-----5-555-555------555------------|
  E|---------------------7777----------------|

       verse/riff 2
  G|-----------------------------------------|
  D|------------------------------4-0h40h40--|
  A|--9997--------------------555------------|
  E|-------999-7-777-7777777-----------------|

  G|-----------------------------------------|
  D|------------------------------4-0h40h40--|
  A|--9997---------------------555-----------|
  E|--------999-7-777-7777777----------------|
       repeat riff1

       riff 3
  G|-------------------------------------------|
  D|-------7777---------------------4-0h40h40--|
  A|--9999------5-55-5-55-------555------------|
  E|----------------------7-777----------------|

  G|-------------------------------------------|
  D|-------7777-------5-55----------4-0h40h40--|
  A|--9999------5-555-----------555------------|
  E|----------------------7-777----------------|

       before short inst. break
  G|---------------------------------|
  D|-------777--------------------4--|
  A|--9999-----5-555-555------555----|
  E|---------------------7777--------|

  G|---------------------------------|
  D|-------777--------------------4--|
  A|--9999-----5-555-555------555----|
  E|---------------------7777--------|
        repeat riff 2
        repeat riff 1

  during instumental outro (up tempo)
  G|---------------------|
  D|---------------------|
  A|-------77----7h97h9--|
  E|--7777----99---------|
       X4
  G|------------------------|
  D|------------------------|
  A|--97---797------7h97h9--|
  E|-----9-----9(7)---------|
        X4
    repeat these riffs X4 until end

------------------------------------------------------------------------------------

Riff 2

-------------------------------------------------|
-12-14-15----------------12-14-15----------------|
----------18---16-11--------------18---14-16-----|
-------------------------------------------------|
-------------------------------------------------|
-------------------------------------------------|

Riff 1

---15-14---------------------15-14---------------|
-12----------12-15-12------12---------12-15-12---|
-------------------------------------------------|
-------------------------------------------------|
-------------------------------------------------|
-------------------------------------------------|

Riff 3

--------------------------------------------------------------------------|
--12-14-12-15-15-12-14-12----------------12-14-12-15-15-12-14---15--12----|
----------------------------18--11-11-------------------------------------|
--------------------------------------------------------------------------|
--------------------------------------------------------------------------|
--------------------------------------------------------------------------|
,


PG SP BRASIL

Accueil | Tablatures | Compos | Blog | Forum | Annuaire | Contact