I need your love - Aswad

Partition transcrite par stclair
Instruments : Partition basse
G|-------------------------------------------------|   
D|-------55---------77---------99----------77------|   
A|--33-3---35---55-5--57---77-7--79----55-5--57----|   
E|------------3----------5----------7-----------5--|  

Also,   

G|----------------------------------------------------|   
D|----------------------------------------------------|   
A|--33-3---35---55-5---57--77-7--79-----55-5---57-----|   
E|------33---3------55---5-----77-----7-----55----5---|  


Listen to the tune to get the rhythm. Mix it up a little - nice rhythm to play!!!

Accueil | Tablatures | Compos | Blog | Forum | Annuaire | Contact