Boys don't cry - The Cure

Partition transcrite par everton
Instruments : Partition guitare, Partition basse, Partition batterie
Intro:
G --------------------------------------------------
D --------------------------------------------------
A 0-2-4-5-5-4-2-------------------------------------
E --------------------------------------------------

Then comes the chorus part (repeat 3x):
G -------------------------------------------------------------
D -------------------------------------------------------------
A 0-0-0-0-0-0-0-0-2-2-2-2-2-2-2-2-4-4-4-4-4-4-4-4-5-5-5-5-5-4-2
E -------------------------------------------------------------

Then there’s the verse part, which is almost the same as the chorus:

G ---------------------------------------------------------------
D ---------------------------------------------------------------
A 0-0-0-0-0-0-0-0-2-2-2-2-2-2-2-2-4-4-4-4-4-4-4-4-5-5-5-5-5-5-5-5
E ---------------------------------------------------------------

Now comes this part, which leads to the chorus (“So I tried to laugh about it...”):
G ---------------------------------------------------
D ---------------------------------------------------
A 4-4-4-4-4-4-4-4-2–2-2-2-2-2–2-2-4-4-4-4–4-4-4------
E ---------------------------------------------------

G ----------------------------------------------------
D ----------------------------------------------------
A 2-2-2-2-2-2-2-2-4-4-4-4-4-4-4-4-5-5-5-5-5-5-5-5-----
E ----------------------------------------------------

G -------------------------------------
D -------------------------------------
A 4-4-4-4-4-4-4-4-2-2-2-2-2-2-2-2------
E -------------------------------------

                        ou

Intro                        Outro (the same)
F|-----------------------|  |-----------------------|-------------------------
C|-----------------------|  |-----------------------|-------------------------
G|2---4---6---7---7-6-4-2|  |2---4---6---7---7-6-4-2|-------------------------
D|-----------------------|  |-----------------------|-------------------------

Riff 1
F|--------------------------------------------------------------|----------------
C|--------------------------------------------------------------|----------------
G|/14-14-14-14-14/16-16-16-16-16/18-18-18-18-18-19---19-18-16-14|----------------
D|--------------------------------------------------------------|----------------

Riff 2
F|-------------------------------------------|-----------------------------------
C|-------------------------------------------|-----------------------------------
G|2-2-2-2-2/4-4-4-4-4/6-6-6-6-6-7---7-7-6-4-2|-----------------------------------
D|-------------------------------------------|-----------------------------------

Riff 3
F|-------------------------------------------------------------------------------
C|-------------------------------------------------------------------------------
G|6-6-6-6-6-4-4-4-4-4-6-6-6-6-6-4-4-4-4-4-6-6-6-6-6/7-6-2-0-2-6-6-6-6-6-4-4-4-4-4
D|-------------------------------------------------------------------------------

Riff 4
F|------------------------|2x   Then|--------------------------------------|--
C|------------------------|         |--------------------------------------|--
G|9-9-9-9-9-11-11-11-11-11|         |9-9-9-9-11-11-11-11-11-7-7-7-7-9-7-6-4|--
D|------------------------|     |--------------------------------------|--

The song goes like this:

  Intro Riff 1 Riff 1 
F|-----|------|------|---------------------------------------------------------|
C|-----|------|------|----------------------------------------------------16-18|
G|-----|------|------|/14-14-14-14-14/16-16-16-16-16/18-18-18-18-18-19-19------|
D|-----|------|------|---------------------------------------------------------|

  Riff 2                                           Riff 3 Riff 1 Riff 1 Riff 2
F|------|-----------------------------------------|------|------|------|------|
C|------|-----------------------------------------|------|------|------|------|
G|------|2-2-2-2-2/4-4-4-4-4/6-6-6-6-6-7--7-7-9-11|------|------|------|------|
D|------|-----------------------------------------|------|------|------|------|

                                            Riff 3 Riff 1 Riff 1 Riff 2
F|-----------------------------------------|------|------|------|------|
C|-----------------------------------------|------|------|------|------|
G|2-2-2-2-2/4-4-4-4-4/6-6-6-6-6-7--7-7-9-11|------|------|------|------|
D|-----------------------------------------|------|------|------|------|





                                            Riff 4 Riff 2 Riff 2 Riff 1 Riff 1
F|-----------------------------------------|------|------|------|------|------|
C|-----------------------------------------|------|------|------|------|------|
G|2-2-2-2-2/4-4-4-4-4/6-6-6-6-6-7--7-7-9-11|------|------|------|------|------|
D|-----------------------------------------|------|------|------|------|------|

                                                            Outro
F|---------------------------------------------------------|------|
C|----------------------------------------------------16-18|------|
G|/14-14-14-14-14/16-16-16-16-16/18-18-18-18-18-19-19------|------|
D|---------------------------------------------------------|------|


----------------------------------------------------------------------------------------

Tom: A
Prelúdio:  A  Bm  C#m  D
           D5  C#m  Bm  A

Intro 3x: A  Bm  C#m  D  D  C#m  Bm  A

Solo 2x:

E|-------------------------------------------|
B|-2-2-3-5--2-2--3-5--5-5-7-9-10-7-5-3-2-----|
G|-------------------------------------------|
D|-------------------------------------------|
A|-------------------------------------------|
E|-------------------------------------------|


A               Bm         C#m                    D
I would say I'm sorry if I thought that it would change your mind
A               Bm         C#m                    D
But I know that this time I have said too much, been to unkind
C#m             Bm         C#m                 Bm
I try to laugh about it, cover it all up with lies
C#m               Bm         C#m                     Bm
    I try to laugh about it, hiding the tears in my eyes

(Refrão)

Solo 2x:

E|-----------------------------2-4-5-2---------|
B|-2-2-2-3-5--2-2-2-3-5--5-5-5----------5-3-2--|
G|---------------------------------------------|
D|---------------------------------------------|
A|---------------------------------------------|
E|---------------------------------------------|


     A  Bm  C#m  D ( D  C#m  Bm  A ) (2x)
Cos' boys don't cry
     Boys don't cry

A               Bm         C#m                    D
I would break down at your feet and beg forgiveness, plead with you
A               Bm         C#m                    D
But I know that it's too late and now there's nothing left that I can do
C#m             Bm         C#m                    Bm
So I try to laugh about it, cover it all up with lies
C#m               Bm         C#m                 Bm
I try to laugh about it, hiding the tears in my eyes

Refrão:

A               Bm         C#m                    D
I would tell you that I loved you if I thought that you would stay
A               Bm         C#m                    D
But I know that it's no use that you've already gone away

E               F#m      E               F#m
 Misjudged your limit,  pushed you too far
E             F#m      Bm                  E
 Took you for granted, I thought that you needed me more
A               Bm         C#m                    D
Now I would do most anything to get you back by my side
A               Bm         C#m                    D
But I just keep on laughing, hiding the tears in my eyes


E|-----------------------------2-4-5---2-----|
B|-2-2-2-3-5--2-2-2-3-5--5-5-5----------5-3-2|
G|-------------------------------------------|
D|-------------------------------------------|
A|-------------------------------------------|
E|-------------------------------------------|  2x 


( A  Bm  C#m  D )
( D  C#m  Bm  A) 2x

( A )

Cos' boys don't cry
     Boys don't cry
     Boys don't cry

---------------------------------------------------------------------------------------

                                         | ====== 2x ====== |
 Count:|         3  a  +  | 1 + 2 + 3 + 4 +  | 1 + 2 + 3 + 4 +  |
   Cym:| ---------------- | X--------------- | ---------------- |
    Hh:| ---------------- | --x-x-x-x-x-x-x- | x-x-x-x-x-x-x-x- |
   SnD:| --------o--o--o- | ----o-------o--- | ----o-------o--- |
   BD1:| ---------------- | o-------o------- | o-------o------- |


 Count:| 1 + 2 + 3  a  +  | 1 + 2 + 3 + 4 +  | 1 + 2 + 3 + 4 +  |
   Cym:| ---------------- | X--------------- | ---------------- |
    Hh:| x-x-x-x--------- | --x-x-x-x-x-x-x- | x-x-x-x-x-x-x-x- |
   SnD:| ----o---o--o--o- | ----o-------o--- | ----o-------o--- |
   BD1:| o--------------- | o-------o------- | o-------o------- |


                                             | ====== 2x ====== |
 Count:| 1 + 2 + 3 + 4 +  | 1 + 2 + 3 + 4 +  | 1 + 2 + 3 + 4 +  |
   Cym:| ---------------- | X--------------- | ---------------- |
    Hh:| x-x-x-x-x-x-x-x- | --x-x-x-x-x-x-x- | x-x-x-x-x-x-x-x- |
   SnD:| ----o-------o-o- | ----o-------o--- | ----o-------o--- |
   BD1:| o-------o------- | o-------o------- | o-------o------- |


 Count:| 1 + 2 + 3  a  +  | 1 + 2 + 3 + 4 +  | 1 + 2 + 3 + 4 +  |
   Cym:| ---------------- | X--------------- | ---------------- |
    Hh:| x-x-x-x--------- | --x-x-x-x-x-x-x- | x-x-x-x-x-x-x-x- |
   SnD:| ----o---o--o--o- | ----o-------o--- | ----o-------o--- |
   BD1:| o--------------- | o-------o------- | o-------o------- |


 Count:| 1 + 2 + 3 + 4e+  | 1 + 2 + 3 + 4 +  | 1 + 2 + 3 + 4 +  |
   Cym:| ---------------- | X--------------- | ---------------- |
    Hh:| x-x-x-x-x-x----- | --x-x-x-x-x-x-x- | x-x-x-x-x-x-x-x- |
   SnD:| ----o-------ooo- | ----o-------o--- | ----o-------o--- |
   BD1:| o-------o------- | o-------o------- | o-------o------- |


                                             | ====== 2x ====== |
 Count:| 1 + 2 + 3 + 4e+  | 1 + 2 + 3 + 4 +  | 1 + 2 + 3 + 4 +  |
   Cym:| ---------------- | X--------------- | ---------------- |
    Hh:| x-x-x-x-x-x----- | --x-x-x-x-x-x-x- | x-x-x-x-x-x-x-x- |
   SnD:| ----o-------ooo- | ----o-------o--- | ----o-------o--- |
   BD1:| o-------o------- | o-------o------- | o-------o------- |


 Count:| 1 + 2 + 3  a  +  | 1 + 2 + 3 + 4 +  | 1 + 2 + 3 + 4 +  |
   Cym:| ---------------- | X--------------- | ---------------- |
    Hh:| x-x-x-x--------- | --x-x-x-x-x-x-x- | x-x-x-x-x-x-x-x- |
   SnD:| ----o---o--o--o- | ----o-------o--- | ----o-------o--- |
   BD1:| o--------------- | o-------o------- | o-------o------- |


 Count:| 1 + 2 + 3 + 4e+  | 1 + 2 + 3 + 4 +  | 1 + 2 + 3 + 4 +  |
   Cym:| ---------------- | X--------------- | ---------------- |
    Hh:| x-x-x-x-x-x----- | --x-x-x-x-x-x-x- | x-x-x-x-x-x-x-x- |
   SnD:| ----o-------ooo- | ----o-------o--- | ----o-------o--- |
   BD1:| o-------o------- | o-------o------- | o-------o------- |


 Count:| 1 + 2 + 3 + 4e+  | 1 + 2 + 3 + 4 +  | 1   +   2   +   3   +   4 e      |
   Cym:| ---------------- | X--------------- | -------------------------------- |
    Hh:| x-x-x-x-x-x----- | --x-x-x-x-x-x-x- | x---x---x---x---x---x---x------- |
   SnD:| ----o-------ooo- | ----o-------o--- | --------o----------------ooo---- |
   BD1:| o-------o------- | o-------o------- | o---------------o--------------- |


 Count:| 1 + 2 + 3 + 4 +  | 1   +   2   +   3   +     e      |
   Cym:| X--------------- | -------------------------------- |
    Hh:| --x-x-x-x-x-x-x- | x---x---x---x---x---x----------- |
   SnD:| ----o-------o--- | --------o----------------ooo---- |
   BD1:| o-------o------- | o---------------o--------------- |


 Count:| 1 + 2 + 3 + 4 +  | 1 + 2 + 3 + 4e+  | 1 + 2 + 3 + 4 +  |
   Cym:| X--------------- | ---------------- | X--------------- |
    Hh:| --x-x-x-x-x-x-x- | x-x-x-x-x-x----- | --x-x-x-x-x-x-x- |
   SnD:| ----o-------o--- | ----o-------ooo- | ----o-------o--- |
   BD1:| o-------o------- | o-------o------- | o-------o------- |


 Count:| 1 + 2 + 3 + 4 +  | 1 + 2 + 3 + 4 +  | 1 + 2 + 3 + 4 +  |
   Cym:| ---------------- | X--------------- | ---------------- |
    Hh:| ---------------- | --x-x-x-x-x-x-x- | x-x-x-x-x-x-x-x- |
   SnD:| o---o---o---o-o- | ----o-------o--- | ----o-------o--- |
   BD1:| --o---o---o----- | o-------o------- | o-------o------- |


 Count:| 1 + 2 + 3 + 4e+  | 1 + 2 + 3 + 4 +  | 1 + 2 + 3 + 4 +  |
   Cym:| ---------------- | X--------------- | ---------------- |
    Hh:| x-x-x-x-x-x----- | --x-x-x-x-x-x-x- | x-x-x-x-x-x-x-x- |
   SnD:| ----o-------ooo- | ----o-------o--- | ----o-------o--- |
   BD1:| o-------o------- | o-------o------- | o-------o------- |


                                             | ====== 2x ====== |
 Count:| 1 + 2 + 3 + 4e+  | 1 + 2 + 3 + 4 +  | 1 + 2 + 3 + 4 +  |
   Cym:| ---------------- | X--------------- | ---------------- |
    Hh:| x-x-x-x-x-x----- | --x-x-x-x-x-x-x- | x-x-x-x-x-x-x-x- |
   SnD:| ----o-------ooo- | ----o-------o--- | ----o-------o--- |
   BD1:| o-------o------- | o-------o------- | o-------o------- |


 Count:| 1 + 2 + 3  a  +  | 1           4 +  | 1           4 +  |
   Cym:| ---------------- | X--------------- | X--------------- |
    Hh:| x-x-x-x--------- | ---------------- | ---------------- |
  Tom1:| ---------------- | ------------o-o- | ---------------- |
  Tom2:| ---------------- | ---------------- | ------------o-o- |
   SnD:| ----o---o--o--o- | ---------------- | ---------------- |
   BD1:| o--------------- | o--------------- | o--------------- |


 Count:| 1           4 +  | 1       3  a  +  | 1                |
   Cym:| X--------------- | X--------------- | X--------------- |
   SnD:| ---------------- | --------o--o--o- | ---------------- |
  FlT1:| ------------o-o- | ---------------- | ---------------- |
   BD1:| o--------------- | o--------------- | o--------------- |


Accueil | Tablatures | Compos | Blog | Forum | Annuaire | Contact