Paranoid - Black Sabbath

Partition transcrite par everton
Instruments : Partition guitare, Partition basse, Partition batterie
Intro:

G|-------------7-9-----7-9------------7-9-----7-9----
D|---------7-9-----7-9------------7-9-----7-9--------
A|-2/7-7-7-----------------/7-7-7--------------------
E|---------------------------------------------------


Primeira parte:

G|---------------------------------------------------
D|---------------------------------------------------
A|-7-7-7-7-7-7-7-7-7-7-7-7-7-7-7-7-------------------
E|---------------------------------------------------

G|---------------------------------------------------
D|-----------------5---------------------------------
A|-5-5-5-5-5-5-5-5---5-7b¼-5-------------------------
E|---------------------------7-----------------------

G|---------------------------------------------------
D|---------------------------------------------------
A|-7-7-7-7-7-7-7-7-7-7-7-7-7-7-7-7-------------------
E|---------------------------------------------------

G|---------------------------------------------------
D|-----------------5-----7-5-------------------------
A|-5-5-5-5-5-5-5-5---5-7-----------------------------
E|---------------------------------------------------

Finished with my woman 'cause she couldn't help me with my mind
People think I'm insane because I am frowning all the time


Interlúdio 1:

G|---------------------5-----7-----------------------
D|-------------------5-----7-------------------------
A|-7-7-7-7-7-7-7-7-3-----5---------------------------
E|---------------------------------------------------

G|---------------------------------------------------
D|---------------------------------------------------
A|-7-7-7-7-7-7-7-7-7-7-7-7-7-7-7-7-------------------
E|---------------------------------------------------

G|---------------------5-----7-----------------------
D|-------------------5-----7-------------------------
A|-7-7-7-7-7-7-7-7-3-----5---------------------------
E|---------------------------------------------------

G|---------------------------------------------------
D|---------------------------------------------------
A|-7-7-7-7-7-7-7-7-7-7-7-7-7-7-7-7-------------------
E|---------------------------------------------------


Segunda parte:

G|---------------------------------------------------
D|---------------------------------------------------
A|-7-7-7-7-7-7-7-7-7-7-7-7-7-7-7-7-------------------
E|---------------------------------------------------

G|---------------------------------------------------
D|-----------------5---------------------------------
A|-5-5-5-5-5-5-5-5---5-7b¼-5-------------------------
E|---------------------------7-----------------------

G|---------------------------------7-9---------------
D|-----------------------------7-9-------------------
A|-7-7-7-7-7-7-7-7-7-7-7-7-7-7-----------------------
E|---------------------------------------------------

G|---------------------------------------------------
D|-----------------5-----7-5-------------------------
A|-5-5-5-5-5-5-5-5---5-7-----------------------------
E|---------------------------------------------------

(...)
All day long I think of things but nothing seems to satisfy
Think I'll lose my mind if I don't find something to pacify


Terceira parte:

G|---------------------------------------------------
D|---------------------------------------------------
A|-7-7-7-7-7-7-7-7-7-7-7-7-7-7-7-7-------------------
E|---------------------------------------------------

G|---7---7---7---7---7---7---7---7-------------------
D|---------------------------------------------------
A|-5---5---5---5---5---5---5---5---------------------
E|---------------------------------------------------

G|---9---9---9---9---9---9---9---9-------------------
D|---------------------------------------------------
A|-7---7---7---7---7---7---7---7---------------------
E|---------------------------------------------------

G|---7---7---7---7---7---7---7---7-------------------
D|---------------------------------------------------
A|-5---5---5---5---5---5---5---5---------------------
E|---------------------------------------------------

(...)
Can you help me? Occupy my brain?
Oh yeah


Interlúdio 2:

G|---------------------------------------------------
D|---------------------------------------------------
A|-7-7-7-7-7-7-7-7-7-7-7-7-7-7-7-7-------------------
E|---------------------------------------------------

G|---------------------------------------------------
D|-----------------5---------------------------------
A|-5-5-5-5-5-5-5-5---5-7b¼-5-------------------------
E|---------------------------7-----------------------

G|---------------------------------------------------
D|---------------------------------------------------
A|-7-7-7-7-7-7-7-7-7-7-7-7-7-7-7-7-------------------
E|---------------------------------------------------

G|---------------------------------------------------
D|-----------------5-----7-5-------------------------
A|-5-5-5-5-5-5-5-5---5-7-----------------------------
E|---------------------------------------------------

  
Quarta parte:

G|---------------------------------7-9---------------
D|-----------------------------7-9-------------------
A|-7-7-7-7-7-7-7-7-7-7-7-7-7-7-----------------------
E|---------------------------------------------------

G|---------------------------------------------------
D|-----------------5---------------------------------
A|-5-5-5-5-5-5-5-5---5-7b¼-5-------------------------
E|---------------------------7-----------------------

G|---------------------------------7-9---------------
D|-----------------------------7-9-------------------
A|-7-7-7-7-7-7-7-7-7-7-7-7-7-7-----------------------
E|---------------------------------------------------

G|---------------------------------------------------
D|-----------------5-----7-5-------------------------
A|-5-5-5-5-5-5-5-5---5-7-----------------------------
E|---------------------------------------------------

(...)
I need someone to show me the things in life that I can't find
I can't see the things that make true happiness, I must be blind


Solo:

G|---------------------------------------------------
D|---------------------------------------------------
A|-7-7-7-7-7-7-7-7-7-7-7-7-7-7-7-7-------------------
E|---------------------------------------------------

G|---7---7-------------------------------------------
D|-----------------5---------------------------------
A|-5---5---5-5-5-5---5-7b¼-5-------------------------
E|---------------------------7-----------------------

G|---------------------------------------------------
D|---------------------------------------------------
A|-7-7-7-7-7-7-7-7-7-7-7-7-7-7-7-7-------------------
E|---------------------------------------------------

G|---------------------------------------------------
D|-----------------5-----7-5-------------------------
A|-5-5-5-5-5-5-5-5---5-7-----------------------------
E|---------------------------------------------------

G|---------------------------------------------------
D|---------------------------------------------------
A|-7-7-7-7-7-7-7-7-7-7-7-7-7-7-7-7-------------------
E|---------------------------------------------------

G|---------------------------------------------------
D|-----------------5---------------------------------
A|-5-5-5-5-5-5-5-5---5-7b¼-5-------------------------
E|---------------------------7-----------------------

G|---------------------------------------------------
D|---------------------------------------------------
A|-7-7-7-7-7-7-7-7-7-7-7-7-7-7-7-7-------------------
E|---------------------------------------------------

G|---------------------------------------------------
D|-----------------5---7-7-5------------------------
A|-5-5-5-5-5-5-5-5---5-------------------------------
E|---------------------------------------------------


Interlúdio 3:

G|---------------------------------7-9---------------
D|-----------------------------7-9-------------------
A|-7-7-7-7-7-7-7-7-7-7-7-7-7-7-----------------------
E|---------------------------------------------------

G|---------------------------------------------------
D|-----------------5---------------------------------
A|-5-5-5-5-5-5-5-5---5-7b¼-5-------------------------
E|---------------------------7-----------------------

G|---------------------------------7-9---------------
D|-----------------------------7-9-------------------
A|-7-7-7-7-7-7-7-7-7-7-7-7-7-7-----------------------
E|---------------------------------------------------

G|---------------------------------------------------
D|-----------------5-----7-5-------------------------
A|-5-5-5-5-5-5-5-5---5-7-----------------------------
E|---------------------------------------------------


Quinta parte:

G|---------------------------------------------------
D|---------------------------------------------------
A|-7-7-7-7-7-7-7-7-7-7-7-7-7-7-7-7-------------------
E|---------------------------------------------------

G|---------------------------------------------------
D|-----------------5---------------------------------
A|-5-5-5-5-5-5-5-5---5-7-7-7-------------------------
E|---------------------------------------------------

G|---------------------------------------------------
D|---------------------------------------------------
A|-7-7-7-7-7-7-7-7-7-7-7-7-7-7-7-7-------------------
E|---------------------------------------------------

G|---------------------------------------------------
D|-----------------5-----7-5-------------------------
A|-5-5-5-5-5-5-5-5---5-7-----------------------------
E|---------------------------------------------------

(...)
Make a joke and I will sigh and you will laugh and I will cry
Happiness I cannot feel and love to me is so unreal


Interlúdio 4:

G|---------------------5-----7-----------------------
D|-------------------5-----7-------------------------
A|-7-7-7-7-7-7-7-7-3-----5---------------------------
E|---------------------------------------------------

G|---------------------------------------------------
D|---------------------------------------------------
A|-7-7-7-7-7-7-7-7-7-7-7-7-7-7-7-7-------------------
E|---------------------------------------------------

G|---------------------5-----7-----------------------
D|-------------------5-----7-------------------------
A|-7-7-7-7-7-7-7-7-3-----5---------------------------
E|---------------------------------------------------

G|---------------------------------------------------
D|---------------------------------------------------
A|-7-7-7-7-7-7-7-7-7-7-7-7-7-7-7-7-------------------
E|---------------------------------------------------


Sexta parte:

G|---------------------------------7-9---------------
D|-----------------------------7-9-------------------
A|-7-7-7-7-7-7-7-7-7-7-7-7-7-7-----------------------
E|---------------------------------------------------

G|---------------------------------------------------
D|-----------------5---------------------------------
A|-5-5-5-5-5-5-5-5---5-7b¼-5-------------------------
E|---------------------------7-----------------------

G|---------------------------------7-9---------------
D|-----------------------------7-9-------------------
A|-7-7-7-7-7-7-7-7-7-7-7-7-7-7-----------------------
E|---------------------------------------------------

G|---------------------------------------------------
D|-----------------5-----7-5-------------------------
A|-5-5-5-5-5-5-5-5---5-7-----------------------------
E|---------------------------------------------------

(...)
And so as you hear these words telling you now of my state
I tell you to enjoy life I wish I could but it's too late


Final:

G|---------------------------------------------------
D|---------------------------------------------------
A|-7-7-7-7-7-7-7-7-7-7-7-7-7-7-7-7-------------------
E|---------------------------------------------------

G|---------------------------------------------------
D|-----------------5---------------------------------
A|-5-5-5-5-5-5-5-5---5-7b¼-5-------------------------
E|---------------------------7-----------------------

G|---------------------------------7-9---------------
D|-----------------------------7-9-------------------
A|-7-7-7-7-7-7-7-7-7-7-7-7-7-7-----------------------
E|---------------------------------------------------

G|---------------------------------------------------
D|-----------------5---------------------------------
A|-5-5-5-5-5-5-5-5---5-7-----------------------------
E|---------------------------------------------------


---------------------------------------------------------------------------------------


Tom: G
Intro 4x:

E|----------------------------------------------------|
B|----------------------------------------------------|
G|-7h9--7h9--7h9-------7-h9------7-h9-----------------|
D|-7h9--7h9--7h9--7-h9------7-h9----------------------|
A|----------------------------------------------------|
E|----------------------------------------------------|


Primeira Parte - Versos 1 e 2:
 E5                                D5               G5   D5 E5
Finished with my woman 'cause she couldn't help me with my mind
 E5                               D5          G5   D5  E5
People think I'm insane because I am frowning all the time

(Transição 2x:

   E5     C5  D5
E|------------------------------------------|
B|------------------------------------------|
G|------------------------------------------|
D|-9------5---7-----------------------------|
A|-7------3---5-----------------------------|
E|------------------------------------------|

   ↓      ↓   ↓

   E5
E|------------------------------------------|
B|------------------------------------------|
G|------------------------------------------|
D|-9-9-9-9-9-9-9-9-9-9-9-9-9-9-9-9----------|
A|-7-7-7-7-7-7-7-7-7-7-7-7-7-7-7-7----------|
E|------------------------------------------|

   ↓ ↓ ↓ ↓ ↓ ↓ ↓ ↓ ↓ ↓ ↓ ↓ ↓ ↓ ↓ ↓

Primeira Parte - versos 3 e 4:
E5                                 D5                G5  D5   E5
All day long I think of things but nothing seems to sa__tis__fy
  E5                                D5               G5   D5  E5
Think I'll lose my mind if I don't find something to pa__ci__fy

Segunda Parte:
E5
   Can you help me?
D5             E5
   Occupy my brain?
    D5
Oh yeah

Primeira Parte 2x: E5  D5  G5  D5  E5

Primeira Parte - versos 5 e 6:
E5                              D5                G5   D5    E5
I need someone to show me the things in life that I   can't find
E5                                     D5           G5   D5  E5
I can't see the things that make true happiness, I must be blind

Solo:

(Parte 1)

E|----------------------------------------------------|
B|----------------------------------------------------|
G|-b12r11p7h9---9-7-9-7-------------------------------|
D|----------------------9-7-7b9r7p5-7~--5-------------|
A|----------------------------------------5-7--------|
E|----------------------------------------------------|


(Parte 2)

E|----------------------------------------------------|
B|---------------------8-10-b12r10p8-b12r10p8-10-10---|
G|---------7/9-9-9-7/9--------------------------------|
D|-7/9-9-9--------------------------------------------|
A|----------------------------------------------------|
E|----------------------------------------------------|


E|----------------------------------------------------|
B|-8------8-------------------------------------------|
G|---9-9----9-9---------------------------------------|
D|----------------------------------------------------|
A|----------------------------------------------------|
E|----------------------------------------------------|


(Parte 3)

E|----------------------------------------------------|
B|-------15-17-17----17-17----17-20-20b22-20b22-------|
G|-14/16----------19-------19-------------------------|
D|----------------------------------------------------|
A|----------------------------------------------------|
E|----------------------------------------------------|


E|----------------------------------------------------|
B|-20b22r20p17-20p17-15-17p15-12-15p12-------17-------|
G|-------------------------------------14b16----------|
D|----------------------------------------------------|
A|----------------------------------------------------|
E|----------------------------------------------------|


E|----------------------------------------------------|
B|----------------------------------------------------|
G|-b16r14p12-14p12----14-b16r14p12~-------------------|
D|-----------------14---------------------------------|
A|----------------------------------------------------|
E|----------------------------------------------------|


(Parte 4)

E|----------------------------------------------------|
B|-10b12-10p8---8-------------------------------------|
G|------------9----9p7---7----------------------------|
D|---------------------9----7p5---5-------------5-----|
A|------------------------------7---7p5---5-5h7---7-5-|
E|--------------------------------------7-------------|


E|----------------------------------------------------|
B|----------------------------------------------------|
G|-7--------------------------------------------------|
D|-5-7---9-------------------------------------------|
A|---5---7-------------------------------------------|
E|----------------------------------------------------|


Primeira Parte - 2x: E5  D5  G5  D5  E5

Primeira Parte - versos 7 e 8:
 E5                              D5                G5  D5    E5
Make a joke and I will sigh and you will laugh and I  will cry
 E5                          D5            G5  D5  E5
Happiness I cannot feel and love to me is so   un_real
E5                              D5             G5  D5  E5
And so as you hear these words telling you now of my state
E5                          D5              G5    D5  E5
I tell you to enjoy life I wish I could but it's too late

Primeira Parte 2x: E5  D5  G5  D5  E5

TABs da base:

(Primeira Parte)

   E5
E|------------------------------------------|
B|------------------------------------------|
G|------------------------------------------|
D|-9-9-9-9-9-9-9-9-9-9-9-9-9-9-9-9----------|
A|-7-7-7-7-7-7-7-7-7-7-7-7-7-7-7-7----------|
E|------------------------------------------|

   ↓ ↓ ↓ ↓ ↓ ↓ ↓ ↓ ↓ ↓ ↓ ↓ ↓ ↓ ↓ ↓


   D5             G5 D5  E5
E|------------------------------------------|
B|------------------------------------------|
G|-----------------7---------12------------|
D|-7-7-7-7-7-7-7-7-5-7---9---12------------|
A|-5-5-5-5-5-5-5-5---5---7------------------|
E|------------------------------------------|

   ↓ ↓ ↓ ↓ ↓ ↓ ↓ ↓ ↓ ↓   ↓    ↓

(Segunda Parte):

   E5     D5     E5     D5
E|------------------------------------------|
B|------------------------------------------|
G|------------------------------------------|
D|-9------7------9------7-------------------|
A|-7------5------7------5-------------------|
E|------------------------------------------|

   ↓      ↓      ↓      ↓


-----------------------------------------------------------------------------------

Introdução:

    Compasso 1 ao 4:
Cr |----------------|----------------|----------------|----------------|
Ri |----------------|----------------|----------------|----------------|
Ch |----------------|----------------|----------------|----------------|
Cx |----------------|----------------|----------------|------------f---|
T1 |----------------|----------------|----------------|----------------|
T2 |----------------|----------------|----------------|----------------|
Su |----------------|----------------|----------------|----------------|
Bu |----------------|----------------|----------------|----------------|
   |1 e 2 e 3 e 4 e |1 e 2 e 3 e 4 e |1 e 2 e 3 e 4 e |1 e 2 e 3 e 4 e |

    Compasso 5 ao 8:
Cr |X---------------|----------------|X---------------|----------------|
Ri |----------------|----------------|----------------|----------------|
Ch |----x---x---x---|x---x---x---x---|----x---x---x---|x---x---x-------|
Cx |----o-------o---|----o-------o---|----o-------o---|----o----oooo---|
T1 |----------------|----------------|----------------|----------------|
T2 |----------------|----------------|----------------|----------------|
Su |----------------|----------------|----------------|----------------|
Bu |o-------o-o-----|o-------o-o-----|o-------o-o-----|o-------o-------|
   |1 e 2 e 3 e 4 e |1 e 2 e 3 e 4 e |1 e 2 e 3 e 4 e |1e+a2e+a3e+a4e+a|

Primeira parte:

    Finished with my woman (...)
    Compasso 9 ao 12:
Cr |X---------------|----------------|----------------|X-X-----X-------|
Ri |----------------|----------------|----------------|----------------|
Ch |----X---X---X---|X---X---X---X---|X---X---X---X---|----------------|
Cx |----o-------o---|----o-------o---|----o-------o---|------------f---|
T1 |----------------|----------------|----------------|----------------|
T2 |----------------|----------------|----------------|----------------|
Su |----------------|----------------|----------------|----------------|
Bu |o-o-----o-o-----|o-o-----o-o-----|o-o-----o-o-----|o-o-----o-------|
   |1 e 2 e 3 e 4 e |1 e 2 e 3 e 4 e |1 e 2 e 3 e 4 e |1 e 2 e 3 e 4 e |

    Compasso 13 ao 16:
Cr |----------------|----------------|----------------|X-X-----X-------|
Ri |----------------|----------------|----------------|----------------|
Ch |X---X---X---X---|X---X---X---X---|X---X---X---X---|----------------|
Cx |----o-------o---|----o-------o---|----o-------o---|------------f---|
T1 |----------------|----------------|----------------|----------------|
T2 |----------------|----------------|----------------|----------------|
Su |----------------|----------------|----------------|----------------|
Bu |o-o-----o-o-----|o-o-----o-o-----|o-o-----o-o-----|o-o-----o-------|
   |1 e 2 e 3 e 4 e |1 e 2 e 3 e 4 e |1 e 2 e 3 e 4 e |1 e 2 e 3 e 4 e |

Interlúdio:

   Compasso 17 ao 20:      
Cr |X---------------|X-------X-------|X---------------|----------------|
Ri |----------------|----------------|----------------|----------------|
Ch |----X---X---X---|----X-------X---|----X---X---X---|X---X---X-------|
Cx |----o-------o---|----o-------o---|----o-------o---|----o----oooo---|
T1 |----------------|----------------|----------------|----------------|
T2 |----------------|----------------|----------------|----------------|
Su |----------------|----------------|----------------|----------------|
Bu |o-o-----o-o-----|o-o-----o-o-----|o-o-----o-o-----|o-o-----o-------|
   |1 e 2 e 3 e 4 e |1 e 2 e 3 e 4 e |1 e 2 e 3 e 4 e |1e+a2e+a3e+a4e+a|

    Compasso 21 ao 24:
Cr |X---------------|X-------X-------|X---------------|----------------|
Ri |----------------|----------------|----------------|----------------|
Ch |----X---X---X---|----X-------X---|----X---X---X---|X---X---X-------|
Cx |----o-------o---|----o-------o---|----o-------o---|----o----oooo---|
T1 |----------------|----------------|----------------|----------------|
T2 |----------------|----------------|----------------|----------------|
Su |----------------|----------------|----------------|----------------|
Bu |o-o-----o-o-----|o-o-----o-o-----|o-o-----o-o-----|o-o-----o-------|
   |1 e 2 e 3 e 4 e |1 e 2 e 3 e 4 e |1 e 2 e 3 e 4 e |1e+a2e+a3e+a4e+a|

Segunda parte:

   All day long I think of things (...)
   Compasso 25 ao 28:
Cr |X---------------|----------------|----------------|X-X-----X-------|
Ri |----------------|----------------|----------------|----------------|
Ch |----X---X---X---|X---X---X---X---|X---X---X---X---|----------------|
Cx |----o-------o---|----o-------o---|----o-------o---|------------f---|
T1 |----------------|----------------|----------------|----------------|
T2 |----------------|----------------|----------------|----------------|
Su |----------------|----------------|----------------|----------------|
Bu |o-o-----o-o-----|o-o-----o-o-----|o-o-----o-o-----|o-o-----o-------|
   |1 e 2 e 3 e 4 e |1 e 2 e 3 e 4 e |1 e 2 e 3 e 4 e |1 e 2 e 3 e 4 e |

   Compasso 29 ao 32:
Cr |----------------|----------------|----------------|X-X-----X-------|
Ri |----------------|----------------|----------------|----------------|
Ch |X---X---X---X---|X---X---X---X---|X---X---X---X---|----------------|
Cx |----o-------o---|----o-------o---|----o-------o---|------------f---|
T1 |----------------|----------------|----------------|----------------|
T2 |----------------|----------------|----------------|----------------|
Su |----------------|----------------|----------------|----------------|
Bu |o-o-----o-o-----|o-o-----o-o-----|o-o-----o-o-----|o-o-----o-------|
   |1 e 2 e 3 e 4 e |1 e 2 e 3 e 4 e |1 e 2 e 3 e 4 e |1 e 2 e 3 e 4 e |

Terceira parte:
                     Can you help me? (...)
    Compasso 33 ao 36:
Cr |X---------------|----------------|X---------------|----------------|
Ri |----------------|----------------|----------------|----------------|
Ch |----X---X---X---|X---X---X---X---|----X---X---X---|X---X---X-------|
Cx |----o-------o---|----o-------o---|----o-------o---|----o----oooo---|
T1 |----------------|----------------|----------------|----------------|
T2 |----------------|----------------|----------------|----------------|
Su |----------------|----------------|----------------|----------------|
Bu |o-o-----o-o-----|o-o-----o-o-----|o-o-----o-o-----|o-o-----o-------|
   |1 e 2 e 3 e 4 e |1 e 2 e 3 e 4 e |1 e 2 e 3 e 4 e |1e+a2e+a3e+a4e+a|

   Compasso 37 ao 40:
Cr |X---------------|----------------|X---------------|----------------|
Ri |----------------|----------------|----------------|----------------|
Ch |----X---X---X---|X---X---X---X---|----X---X---X---|X---------------|
Cx |----o-------o---|----o-------o---|----o-------o---|--ooooooooooo---|
T1 |----------------|----------------|----------------|----------------|
T2 |----------------|----------------|----------------|----------------|
Su |----------------|----------------|----------------|----------------|
Bu |o-o-----o-o-----|o-o-----o-o-----|o-o-----o-o-----|o---------------|
   |1 e 2 e 3 e 4 e |1 e 2 e 3 e 4 e |1 e 2 e 3 e 4 e |1e+a2e+a3e+a4e+a|

   Compasso 41 ao 44:
Cr |X---------------|----------------|----------------|X-X-----X-------|
Ri |----------------|----------------|----------------|----------------|
Ch |----X---X---X---|X---X---X---X---|X---X---X---X---|----------------|
Cx |----o-------o---|----o-------o---|----o-------o---|------------f---|
T1 |----------------|----------------|----------------|----------------|
T2 |----------------|----------------|----------------|----------------|
Su |----------------|----------------|----------------|----------------|
Bu |o-o-----o-o-----|o-o-----o-o-----|o-o-----o-o-----|o-o-----o-------|
   |1 e 2 e 3 e 4 e |1 e 2 e 3 e 4 e |1 e 2 e 3 e 4 e |1 e 2 e 3 e 4 e |

   Compasso 45 ao 48:
Cr |----------------|----------------|----------------|X-X-----X-------|
Ri |----------------|----------------|----------------|----------------|
Ch |X---X---X---X---|X---X---X---X---|X---X---X---X---|----------------|
Cx |----o-------o---|----o-------o---|----o-------o---|------------f---|
T1 |----------------|----------------|----------------|----------------|
T2 |----------------|----------------|----------------|----------------|
Su |----------------|----------------|----------------|----------------|
Bu |o-o-----o-o-----|o-o-----o-o-----|o-o-----o-o-----|o-o-----o-------|
   |1 e 2 e 3 e 4 e |1 e 2 e 3 e 4 e |1 e 2 e 3 e 4 e |1 e 2 e 3 e 4 e |

Quarta parte:

   I need someone to show (...)
   Compasso 49 ao 52:
Cr |----------------|----------------|----------------|X-X-----X-------|
Ri |----------------|----------------|----------------|----------------|
Ch |X---X---X---X---|X---X---X---X---|X---X---X---X---|----------------|
Cx |----o-------o---|----o-------o---|----o-------o---|------------f---|
T1 |----------------|----------------|----------------|----------------|
T2 |----------------|----------------|----------------|----------------|
Su |----------------|----------------|----------------|----------------|
Bu |o-o-----o-o-----|o-o-----o-o-----|o-o-----o-o-----|o-o-----o-------|
   |1 e 2 e 3 e 4 e |1 e 2 e 3 e 4 e |1 e 2 e 3 e 4 e |1 e 2 e 3 e 4 e |

   Compasso 53 ao 56::
Cr |----------------|----------------|----------------|X-X-----X-------|
Ri |----------------|----------------|----------------|----------------|
Ch |X---X---X---X---|X---X---X---X---|X---X---X---X---|----------------|
Cx |----o-------o---|----o-------o---|----o-------o---|------------f---|
T1 |----------------|----------------|----------------|----------------|
T2 |----------------|----------------|----------------|----------------|
Su |----------------|----------------|----------------|----------------|
Bu |o-o-----o-o-----|o-o-----o-o-----|o-o-----o-o-----|o-o-----o-------|
   |1 e 2 e 3 e 4 e |1 e 2 e 3 e 4 e |1 e 2 e 3 e 4 e |1 e 2 e 3 e 4 e |

   Solo:

   Compasso 57 ao 60:
Cr |----------------|----------------|----------------|X-X-----X-------|
Ri |----------------|----------------|----------------|----------------|
Ch |X---X---X---X---|X---X---X---X---|X---X---X---X---|----------------|
Cx |----o-------o---|----o-------o---|----o-------o---|------------f---|
T1 |----------------|----------------|----------------|----------------|
T2 |----------------|----------------|----------------|----------------|
Su |----------------|----------------|----------------|----------------|
Bu |o-o-----o-o-----|o-o-----o-o-----|o-o-----o-o-----|o-o-----o-------|
   |1 e 2 e 3 e 4 e |1 e 2 e 3 e 4 e |1 e 2 e 3 e 4 e |1 e 2 e 3 e 4 e |

   Compasso 61 ao 64:
Cr |----------------|----------------|----------------|X-X-----X-------|
Ri |----------------|----------------|----------------|----------------|
Ch |X---X---X---X---|X---X---X---X---|X---X---X---X---|----------------|
Cx |----o-------o---|----o-------o---|----o-------o---|------------f---|
T1 |----------------|----------------|----------------|----------------|
T2 |----------------|----------------|----------------|----------------|
Su |----------------|----------------|----------------|----------------|
Bu |o-o-----o-o-----|o-o-----o-o-----|o-o-----o-o-----|o-o-----o-------|
   |1 e 2 e 3 e 4 e |1 e 2 e 3 e 4 e |1 e 2 e 3 e 4 e |1 e 2 e 3 e 4 e |

   Compasso 65 ao 68:
Cr |----------------|----------------|----------------|X-X-----X-------|
Ri |----------------|----------------|----------------|----------------|
Ch |X---X---X---X---|X---X---X---X---|X---X---X---X---|----------------|
Cx |----o-------o---|----o-------o---|----o-------o---|------------f---|
T1 |----------------|----------------|----------------|----------------|
T2 |----------------|----------------|----------------|----------------|
Su |----------------|----------------|----------------|----------------|
Bu |o-o-----o-o-----|o-o-----o-o-----|o-o-----o-o-----|o-o-----o-------|
   |1 e 2 e 3 e 4 e |1 e 2 e 3 e 4 e |1 e 2 e 3 e 4 e |1 e 2 e 3 e 4 e |

   Compasso 69 ao 72:
Cr |----------------|----------------|----------------|X-X-----X-------|
Ri |----------------|----------------|----------------|----------------|
Ch |X---X---X---X---|X---X---X---X---|X---X---X---X---|----------------|
Cx |----o-------o---|----o-------o---|----o-------o---|------------f---|
T1 |----------------|----------------|----------------|----------------|
T2 |----------------|----------------|----------------|----------------|
Su |----------------|----------------|----------------|----------------|
Bu |o-o-----o-o-----|o-o-----o-o-----|o-o-----o-o-----|o-o-----o-------|
   |1 e 2 e 3 e 4 e |1 e 2 e 3 e 4 e |1 e 2 e 3 e 4 e |1 e 2 e 3 e 4 e |

   Compasso 73 ao 76:
Cr |----------------|----------------|----------------|X-X-----X-------|
Ri |----------------|----------------|----------------|----------------|
Ch |X---X---X---X---|X---X---X---X---|X---X---X---X---|----------------|
Cx |----o-------o---|----o-------o---|----o-------o---|------------f---|
T1 |----------------|----------------|----------------|----------------|
T2 |----------------|----------------|----------------|----------------|
Su |----------------|----------------|----------------|----------------|
Bu |o-o-----o-o-----|o-o-----o-o-----|o-o-----o-o-----|o-o-----o-------|
   |1 e 2 e 3 e 4 e |1 e 2 e 3 e 4 e |1 e 2 e 3 e 4 e |1 e 2 e 3 e 4 e |

   Compasso 77 ao 80:
Cr |----------------|----------------|----------------|X-X-----X-------|
Ri |----------------|----------------|----------------|----------------|
Ch |X---X---X---X---|X---X---X---X---|X---X---X---X---|----------------|
Cx |----o-------o---|----o-------o---|----o-------o---|------------f---|
T1 |----------------|----------------|----------------|----------------|
T2 |----------------|----------------|----------------|----------------|
Su |----------------|----------------|----------------|----------------|
Bu |o-o-----o-o-----|o-o-----o-o-----|o-o-----o-o-----|o-o-----o-------|
   |1 e 2 e 3 e 4 e |1 e 2 e 3 e 4 e |1 e 2 e 3 e 4 e |1 e 2 e 3 e 4 e |

Quinta parte:

   Make a joke and I will sigh (...)
   Compasso 81 ao 84:
Cr |----------------|----------------|----------------|X-X-----X-------|
Ri |----------------|----------------|----------------|----------------|
Ch |X---X---X---X---|X---X---X---X---|X---X---X---X---|----------------|
Cx |----o-------o---|----o-------o---|----o-------o---|------------f---|
T1 |----------------|----------------|----------------|----------------|
T2 |----------------|----------------|----------------|----------------|
Su |----------------|----------------|----------------|----------------|
Bu |o-o-----o-o-----|o-o-----o-o-----|o-o-----o-o-----|o-o-----o-------|
   |1 e 2 e 3 e 4 e |1 e 2 e 3 e 4 e |1 e 2 e 3 e 4 e |1 e 2 e 3 e 4 e |

   Compasso 85 ao 88:
Cr |----------------|----------------|----------------|X-X-----X-------|
Ri |----------------|----------------|----------------|----------------|
Ch |X---X---X---X---|X---X---X---X---|X---X---X---X---|----------------|
Cx |----o-------o---|----o-------o---|----o-------o---|------------f---|
T1 |----------------|----------------|----------------|----------------|
T2 |----------------|----------------|----------------|----------------|
Su |----------------|----------------|----------------|----------------|
Bu |o-o-----o-o-----|o-o-----o-o-----|o-o-----o-o-----|o-o-----o-------|
   |1 e 2 e 3 e 4 e |1 e 2 e 3 e 4 e |1 e 2 e 3 e 4 e |1 e 2 e 3 e 4 e |

Segundo Interlúdio:

   Compasso 89 ao 92:
Cr |X---------------|X-------X-------|X---------------|----------------|
Ri |----------------|----------------|----------------|----------------|
Ch |----X---X---X---|----X-------X---|----X---X---X---|X---X---X-------|
Cx |----o-------o---|----o-------o---|----o-------o---|----o----oooo---|
T1 |----------------|----------------|----------------|----------------|
T2 |----------------|----------------|----------------|----------------|
Su |----------------|----------------|----------------|----------------|
Bu |o-o-----o-o-----|o-o-----o-o-----|o-o-----o-o-----|o-o-----o-------|
   |1 e 2 e 3 e 4 e |1 e 2 e 3 e 4 e |1 e 2 e 3 e 4 e |1e+a2e+a3e+a4e+a|

   Compasso 93 ao 96:
Cr |X---------------|X-------X-------|X---------------|----------------|
Ri |----------------|----------------|----------------|----------------|
Ch |----X---X---X---|----X-------X---|----X---X---X---|X---X---X-------|
Cx |----o-------o---|----o-------o---|----o-------o---|----o----oooo---|
T1 |----------------|----------------|----------------|----------------|
T2 |----------------|----------------|----------------|----------------|
Su |----------------|----------------|----------------|----------------|
Bu |o-o-----o-o-----|o-o-----o-o-----|o-o-----o-o-----|o-o-----o-------|
   |1 e 2 e 3 e 4 e |1 e 2 e 3 e 4 e |1 e 2 e 3 e 4 e |1e+a2e+a3e+a4e+a|

Sexta parte e final:

   And so as you hear (...)
   Compasso 97 ao 100:
Cr |----------------|----------------|----------------|X-X-----X-------|
Ri |----------------|----------------|----------------|----------------|
Ch |X---X---X---X---|X---X---X---X---|X---X---X---X---|----------------|
Cx |----o-------o---|----o-------o---|----o-------o---|------------f---|
T1 |----------------|----------------|----------------|----------------|
T2 |----------------|----------------|----------------|----------------|
Su |----------------|----------------|----------------|----------------|
Bu |o-o-----o-o-----|o-o-----o-o-----|o-o-----o-o-----|o-o-----o-------|
   |1 e 2 e 3 e 4 e |1 e 2 e 3 e 4 e |1 e 2 e 3 e 4 e |1 e 2 e 3 e 4 e |

   Compasso 101 ao 104:
Cr |----------------|----------------|----------------|X-X-----X-------|
Ri |----------------|----------------|----------------|----------------|
Ch |X---X---X---X---|X---X---X---X---|X---X---X---X---|----------------|
Cx |----o-------o---|----o-------o---|----o-------o---|------------f---|
T1 |----------------|----------------|----------------|----------------|
T2 |----------------|----------------|----------------|----------------|
Su |----------------|----------------|----------------|----------------|
Bu |o-o-----o-o-----|o-o-----o-o-----|o-o-----o-o-----|o-o-----o-------|
   |1 e 2 e 3 e 4 e |1 e 2 e 3 e 4 e |1 e 2 e 3 e 4 e |1 e 2 e 3 e 4 e |

   Compasso 105 ao 108:
Cr |----------------|----------------|----------------|X-X-----X-------|
Ri |----------------|----------------|----------------|----------------|
Ch |X---X---X---X---|X---X---X---X---|X---X---X---X---|----------------|
Cx |----o-------o---|----o-------o---|----o-------o---|------------f---|
T1 |----------------|----------------|----------------|----------------|
T2 |----------------|----------------|----------------|----------------|
Su |----------------|----------------|----------------|----------------|
Bu |o-o-----o-o-----|o-o-----o-o-----|o-o-----o-o-----|o-o-----o-------|
   |1 e 2 e 3 e 4 e |1 e 2 e 3 e 4 e |1 e 2 e 3 e 4 e |1 e 2 e 3 e 4 e |

   Compasso 109 ao 112:
Cr |----------------|----------------|----------------|X-X-----X-------|
Ri |----------------|----------------|----------------|----------------|
Ch |X---X---X---X---|X---X---X---X---|X---X---X---X---|----------------|
Cx |----o-------o---|----o-------o---|----o-------o---|----------------|
T1 |----------------|----------------|----------------|----------------|
T2 |----------------|----------------|----------------|----------------|
Su |----------------|----------------|----------------|----------------|
Bu |o-o-----o-o-----|o-o-----o-o-----|o-o-----o-o-----|o-o-----o-------|
   |1 e 2 e 3 e 4 e |1 e 2 e 3 e 4 e |1 e 2 e 3 e 4 e |1 e 2 e 3 e 4 e |


Accueil | Tablatures | Compos | Blog | Forum | Annuaire | Contact