Roots bloody roots - Sepultura

Partition transcrite par everton
Instruments : Partition guitare, Partition basse, Partition batterie
Tom: C
Tuned down 2 1/2 steps


e|-------------------|
B|-------------------|
G|-------------------|
D|-------------------|
A|-------------------|
E|--0^1-1-0^1-1-0^1--|


e|------12----12---12---12---12---12---|
B|--16-----16---16---16---16---16------|
G|-------------------------------------|
D|-------------------------------------|
A|-------------------------------------|
E|-------------------------------------|


e|------------------|
B|------------------|
G|------------------|
D|------------------|
A|--2^3-3-2^3-3--4--|
E|--0^1-1-0^1-1--2--|


e|----------------------|
B|----------------------|
G|----------------------|
D|----------------------|
A|--(/)8-8-7-7-5-5-4-5--|
E|--(/)6-6-5-5-3-3-2-3--|


e|--------------------------|
B|------18----18---18---18--|
G|----------21---21---21----|
D|--------------------------|
A|--2-2---------------------|
E|--0-0---------------------|


e|------------------|
B|------------------|
G|------------------|
D|-------------A.H.-|
A|--------------3---|
E|--1-0-0-1-0-0-----|


e|-------------------|
B|-------------------|
G|-------------------|
D|-------------------|
A|--4-4-4-4-4-4-4-4--|
E|--2-2-2-2-2-2-2-2--|


e|----------------------------|
B|----------------------------|
G|----------------------------|
D|----------------------------|
A|--3-2--4-3--3-2--4-3--3--3--|
E|--1-0--2-1--1-0--2-1--1--1--|


e|------------------|
B|------------------|
G|------------------|
D|------------------|
A|------------------|
E|--1-1-1-1-1-0-----|


e|-------------------|
B|-------------------|
G|-------------------|
D|--------------10--|
A|--3-3-3-3-3-2------|
E|--1-1-1-1-1-0------|


e|---------------|
B|---------------|
G|---------------|
D|---------------|
A|--3-3-3-3-3-3--|
E|--1-1-1-1-1-1--|

------------------------------------------------------------------------------------


Baixo de 5 cordas

INTRO/VERSE

G||--------------------------|
D||--------------------------|
A||--------------------------|
E||--------------------------|
B||--0--1--1--0--1--1--0--1--|

CHORUS:

A||--------------------------|--------------------------|
E||--------------------------|--------------------------|
B||--0--1--1--0--1--1--1--2--|--0--1--1--0--1--1--1--2--|
  Distortion on               Distortion off

BREAK IN VERSE:

A||-----------------------------|
E||-----------------------------|
B||--5--5--3--3--2--2--0--2--5--|

FIRST BRIDGE:
A||--------|  PLAY     |------------|
E||--------|  FOUR     |------------|
B||--0--0--|  TIMES    |--7--7--7--|
                        THIS PART GOES
                         REALLY FAST
                         ------
OUTRO:
A||--------------------|  PLAY      |--------------------------|
E||--------------------|  EIGHT     |--------------------------|
B||--1--0--0--1--0--0--|  TIMES     |--2--2--2--2--2--2--2--2--|

A||--------------------------------|  PLAY
E||--------------------------------|  FOUR
B||--1--0--2--1--1--0--2--1--1--1--|  TIMES

A||------| PLAY    |--------------------| PLAY
E||------|         |--------------------| THIS SUCKER
B||--5--| TWICE   |--1--1--1--1--1--0--| 'TIL THE END OF THE SONG


                      other version bass

Intro
|--------------------|
|--------------------|
|-2/3-2/3-2/3-2/32/3-|x8
|--------------------|

Pre-Verse (only this time)
|-----------|
|-----------|
|-3-33-3334-|x8
|-----------|

Verse pt.1                 Verse pt.2
|--------------------|     |---------|
|--------------------|     |-3>2>0-0-|
|-2/3-2/3-2/3-2/32/3-|x8   |------4--|x4
|--------------------|     |---------|

Verse pt.1 x4

Chorus
|-----------|
|-----------|
|-3-33-3334-|x8
|-----------|

Verse pt.1 x8

Bridge
|-----|
|-----|
|-2-2-|x4
|-----|

Guitar interlude

Verse pt.1 x8

Verse pt.2 x4

2nd Bridge
|----------|---------|----------------|
|----------|---------|----------------|
|-3-23-232-|-2222222-|-32-43-32-43-33-|
|----------|---------|----------------|
   x8          x1           x4

Outro
|--------| guitar plays this alone 8 times
|--------| then bass joins in and play it 7 times
|-333332-| then on the eigth time you play |-------|
|--------|                                 |-------|
                                           |-33333-|
                                           |-------|


----------------------------------------------------------------------------------------

HH - hi-hat RD - Ride
BD - Bass drum CC - Crash
tt - Small rack tom TT - Middle rack tom
SD - Snare drum FT - Floor tom

d = 32nd note S = Splash
g = ghost note  C = China
F = flam * = hi-hat with foot
____________________________________________


                   |  play 2 times  |                |  play 4 times  |
CC|x---------------|----------------|----------------|----------------|
HH|----x---x---x---|x---x---x---x---|x---x---x---x---|x---x---x---x---|
TT|----------------|----------------|--------------o-|----------------|
SD|----o-------o---|----o-------o---|----o-------o---|----o-------o---|
FT|----------------|----------------|--------------o-|----------------|
BD|o--o--o---o--o--|o--o--o---o--o--|o--o--o---o-----|o--o--o---o--o--|


Chorus

  |  play 3 times  |                |  play 4 times  |
CC|x---x---x---x---|x---x---x---x---|x---x---x---x---|
SD|----o-------o---|----o-------o-o-|----o-------o---|
BD|ooo---o---o--o--|ooo---o---o--o--|ooo---o---o--o--|



CC|x---------------|----------------|----------------|----------------|
HH|--x-x-x-x-x-x---|x-x-x-x-x-x-x---|--x-x-x-x-x-x---|x-x-x-x-x-x-x---|
tt|--------------oo|--------------oo|oo------------oo|----------------|
SD|----o-------o---|----o-------o---|----o-------o---|----o-------o---|
FT|----------------|----------------|----------------|--------------o-|
BD|o--o--o---o-----|o--o--o---oo-o--|---o--o---oo-o--|o--o--o---oo-o--|


HH|x-x-x-x-x-x-x---|x-x-x-x-x-x-x---|--x-x-x-x-x-x---|x-x-x-x-x-x-x-X-|
tt|--------------oo|--------------oo|oo------------oo|----------------|
SD|----o-------o---|----o-------o---|----o-------o---|----o-------o---|
BD|o--o--o---oo-o--|o--o--o---oo-o--|---o--o---oo-o--|o--o--o---o--o--|


  |  play 3 times  |
CC|X-x-x-x-x-x-x-x-|X-x-x-x-x-x-x---|
tt|----oo----------|----oo----------|
TT|--------oo------|--------oo------|
SD|----------------|--------------o-|
FT|------------o-oo|------------o-o-|
BD|o---o---o---o-o-|o---o---o---o---|


                   |  play 3 times  |
CC|x---------------|----------------|
HH|----x---x---x---|x---x---x---x---|
SD|----o-------o---|----o-------o---|
BD|o--o--o---o--o--|o--o--o---o--o--|


Chorus

  |  play 2 times  |                |  play 4 times  |
CC|x---x---x---x---|x---x---x---x---|x---x---x---x---|
SD|----o-------o---|----o-------o-o-|----o-------o---|
BD|ooo---o---o--o--|ooo---o---o--o--|ooo---o---o--o--|


CC|x---------------|----------------|----------------|----------------|
HH|--x-x-x-x-x-x---|x-x-x-x-x-x-x---|--x-x-x-x-x-x---|x-x-x-x-x-x-x-X-|
tt|--------------oo|--------------oo|oo------------oo|----------------|
SD|----o-------o---|----o-------o---|----o-------o---|----o-------o---|
FT|----------------|----------------|----------------|----------------|
BD|o--o--o---o--o--|o--o--o---oo-o--|---o--o---oo-o--|o--o--o---o--o--|


CC|x---x---x---x---|x---x---x---x---|x---x---x---x---|x---x---x---x---|
TT|----------------|--------------do|----------------|----------------|
SD|----o-------o--o|----o-------o---|----o-------o--o|----o-------o---|
BD|o--o--o---o--o--|o--o--o---o-----|o--o--o---o--o--|o--o--o---o-----|


  |  play 4 times  |                     |  play 2 times  |
CC|x-x-------------|x-x-------------|----|----------------|
RD|----x-xxx-x-x-x-|----------------|----|----------------|
SD|----------------|----------------|----|----------------|
FT|o-o-------------|o-o-------------|----|----------------|
BD|o-o-------------|o-o-------------|----|----------------|


                                    |  play 3 times  |
CC|----------------|x---------------|----------------|
HH|----------------|----X---X---X---|X---X---X---X---|
SD|------------o---|----------------|----o-------o---|
FT|--------fooo----|----o-------o---|----------------|
BD|----------------|o--o--o---o--o--|o--o--o---o--o--|


                   |  play 3 times  |
CC|x---------------|----------------|
HH|----x---x---x---|x---x---x---x---|
SD|----o-------o---|----o-------o---|
BD|o--o--o---o--o--|o--o--o---o--o--|


  |  play 3 times  |
CC|X-x-x-x-x-x-x-x-|X-x-x-x-x-x-x---|
tt|----oo----------|----oo----------|
TT|--------oo------|--------oo------|
SD|----------------|--------------o-|
FT|------------o-oo|------------o-o-|
BD|o---o---o---o-o-|o---o---o---o---|


Guitar Solo

  |  play 3 times  |                |  play 3 times  |
CC|x---x---x---x---|x---x---x---x---|x---x---x---x---|x---x---x---x---|
tt|----------------|--------------oo|----------------|----------------|
TT|--------------dd|----------------|--------------dd|----------------|
SD|----o-------o---|----o-------o---|----o-------o---|----o-------o---|
BD|oooooooooooooooo|oooooooooooooooo|oooooooooooooooo|ooooooooooooo---|



                   |           play 4 times          |  play 2 times  |
CC|----------------|X---x---c---X---|x---x---c---c---|----------------|
TT|o-o-o-o-o-o-o-o-|----------------|----------------|----------------|
FT|o-o-o-o-o-o-o-o-|----------------|----------------|----------------|
SD|----------------|--------o-------|--------o---o---|----------------|
BD|o-o-o-o-o-o-o-o-|o-----o-----o-o-|----o-----------|----------------|


  |           play 2 times          |                 
HH|----------------|----------------|----------------|x-x-x-x-x-x-X---|
FT|o---------------|----------------|o---------------|----------------|
BD|o---------------|----------------|o---------------|----------------|


  |  play 7 times  |
CC|x---x---x---c---|x---x---c-------|
SD|--------o-------|--------o-------|
BD|o-o-o-o-o-------|o-o-o-o---------|



Accueil | Tablatures | Compos | Blog | Forum | Annuaire | Contact