She - Green day

Partition transcrite par everton
Instruments : Partition guitare, Partition basse, Partition batterie
 Intro
G:---------------------------------------------------------|
D:--4--4--4--4--4--4--4--4--4--4--4--4--4--4--4--4--4--4---|
A:---------------------------------------------------------|
E:---------------------------------------------------------|

Verso
G:---------------------------------------------------------------------------|
D:--4-4-4-4-4-4-4-4-4-------------------------------------4-4-4-4-4-4-4-4-4--|
A:--------------------4-4-4-4-4-4-4-4-4-2-2-2-2-2-2-2-2-2--------------------|
E:---------------------------------------------------------------------------|
she, she screams in silence, a sullen riot penetrating through her mind

G:---------------------------------------------------------------------------|
D:--4-4-4-4-4-4-4-4-4---------------------------------------3/4-4-34-4-4-----|
A:--------------------4-4-4-4-4-4-4-4-4-2-2-2-2-2-2-2-2-2--------------------|
E:---------------------------------------------------------------------------|
   wai-ting  for  a sign  to  smash  the  silence  with the brick of self control

G:---------------------|
D:---------------------|
A:---------------------|
E:--2-2-2-2-2-2-2-2-2--|


Refrao:
G:----------------------------------------------------------------------------------|
D:----------------------------------------------------------------------------------|
A:--4--4--4--4--4--4--4--4--4--2--2--2--2--2--2--2--2--2----------------------------|
E:--------------------------------------------------------2--2--2--2--2--2--2--2--2-|
are you locked up in a world that's been planned out for you?
are you feeling  like  a  social  tool    without  a  use?

G:--------------------------------------------------------------------------|
D:--------------------------------------------------------------------------|
A:--2-2-2-2---------2-2-2-2---------2-2-2-2-------------4-4-4-4-4-4-4-4-4---|
E:----------2-2-2-2---------2-2-2-2---------2--2--2--2----------------------|
scream at me until my ears bleed, i'm taking heed just for you

Verso2:
G:---------------------------------------------------------------------------|
D:---------------------------------------------------------------------------|
A:--------------------4-4-4-4-4-4-4-4-4-2-2-2-2-2-2-2-2-2---------2----------|
E:--2-2-2-2-2-2-2-2-2---------------------------------------2--2-----2-2-2-2-|
she, she's figured out that all her doubts were someone else's point of view
wak-ing up this time to smash the silence with the brick of self control


(Refrão)


Variação do baixo no solo 2x
G:-----------------------------------------------------------------------------|
D:------------------------------6-4-3-----------3/4-4-34-4---------------------|
A:------------------2-4-4-4-4-4-------4-2-2-2-2----------------2---------------| 
E:2-2-2-2-2-2-2-2-2-----------------------------------------2-2-2-2-2-2-2------|

G:-----------------------------------------------------------------------------|
D:----------------------------3-4-6-4-3-----------3/4-4-34-4-------------------|
A:----------------2-4-4-4-4-4-----------4-2-2-2-2----------------2-------------|
E:2-2-2-2-2-2-2-2---------------------------------------------2-2-2-2-2-2-2----|


(Refrão)

Termine com

G:--x--|
D:--x--|
A:--x--|
E:--3--|

------------------------------------------------------------------------------------


Tom: F#
↓↓  ↓↑↓↑  ↑↓↑

Introdução: (F C# B)
G|---------------------------------------------------------|
D|---------------------------------------------------------| 
A|--------------------4-4-4-4-4-4-4-4-4--2-2-2-2-2-2-2-2-2-|
E|-2-2-2-2-2-2-2-2-2---------------------------------------|


Verso:

e|---------------------------------------------------------|
B|---------------------------------------------------------|
G|--------------------6-6-6-6-6-6-6-6-6--4-4-4-4-4-4-4-4-4-|
D|-4-4-4-4-4-4-4-4-4--6-6-6-6-6-6-6-6-6--4-4-4-4-4-4-4-4-4-|
A|-4-4-4-4-4-4-4-4-4--4-4-4-4-4-4-4-4-4--2-2-2-2-2-2-2-2-2-|
E|-2-2-2-2-2-2-2-2-2---------------------------------------|

F#            C#
She screams in silence
         B                             F#
A sullen riot penetrating through her mind
F#           C#
Waiting for a sign 
             B                               F#
To smash the silence with the brick of self control

Verso:

e|---------------------------------------|
B|---------------------------------------|
G|-6-6-6-6-6-6-6-6--4-4-4-4--------------|
D|-6-6-6-6-6-6-6-6--4-4-4-4--4-4-4-4-4-4-|
A|-4-4-4-4-4-4-4-4--2-2-2-2--4-4-4-4-4-4-|
E|---------------------------2-2-2-2-2-2-|

C#                                 B                     F#
Are you locked up in a world that's been planned out for you?
C#                           B               F#
Are you feeling like a social tool without a use?

Refrão:

e|-------------------------------------------------------------------------------|
B|-------------------------------------------------------------------------------|
G|-4-4-4-4--------------4-4-4-4-------------4-4-4-4--------------6-6-6-6-6-6-6-6-|
D|-4-4-4-4--4-4-4-4-4-4-4-4-4-4-4-4-4-4-4-4-4-4-4-4--4-4-4-4-4-4-6-6-6-6-6-6-6-6-|
A|-2-2-2-2--4-4-4-4-4-4-2-2-2-2-4-4-4-4-4-4-2-2-2-2--4-4-4-4-4-4-4-4-4-4-4-4-4-4-|
E|----------2-2-2-2-2-2---------2-2-2-2-2-2----------2-2-2-2-2-2-----------------|

B          F#      B        F#  
Scream at me until my ears bleed
B           F#           C# 
I'm taking heed just for you

Verso:

e|--------------------------------------------------------------------------------|
B|--------------------------------------------------------------------------------|
G|----------------------------6-6-6-6-6-6-6-6--4-4-4-4-4-4-4-4----------4---------|
D|-4-4-4-4-4-4-4-4-4-4-4-4-4--6-6-6-6-6-6-6-6--4-4-4-4-4-4-4-4--4-4-4-4-4-4-4-4-4-|
A|-4-4-4-4-4-4-4-4-4-4-4-4-4--4-4-4-4-4-4-4-4--2-2-2-2-2-2-2-2--4-4-4-4-2-4-4-4-4-|
E|-2-2-2-2-2-2-2-2-2-2-2-2-2------------------------------------2-2-2-2---2-2-2-2-|

F#           C#           
She's figured out
        B                                    F#   B  F#
All her doubts were someone else's point of view
F#            C#
Waking up this time
             B                               F#  B  F
To smash the silence with the brick of self control

Verso:

e|---------------------------------------|
B|---------------------------------------|
G|-6-6-6-6-6-6-6-6--4-4-4-4--------------|
D|-6-6-6-6-6-6-6-6--4-4-4-4--4-4-4-4-4-4-|
A|-4-4-4-4-4-4-4-4--2-2-2-2--4-4-4-4-4-4-|
E|---------------------------2-2-2-2-2-2-|

C#                                 B                     F#
Are you locked up in a world that's been planned out for you?
C#                           B               F#
Are you feeling like a social tool without a use?

Refrão:

e|-------------------------------------------------------------------------------|
B|-------------------------------------------------------------------------------|
G|-4-4-4-4--------------4-4-4-4-------------4-4-4-4--------------6-6-6-6-6-6-6-6-|
D|-4-4-4-4--4-4-4-4-4-4-4-4-4-4-4-4-4-4-4-4-4-4-4-4--4-4-4-4-4-4-6-6-6-6-6-6-6-6-|
A|-2-2-2-2--4-4-4-4-4-4-2-2-2-2-4-4-4-4-4-4-2-2-2-2--4-4-4-4-4-4-4-4-4-4-4-4-4-4-|
E|----------2-2-2-2-2-2---------2-2-2-2-2-2----------2-2-2-2-2-2-----------------|

B          F#       B        F#  
Scream at me until my ears bleed
B           F#           C# 
I'm taking heed just for you


Passagem: (F# C# B F# B F F#)
e|--------------------------------------------------------------------------------|
B|--------------------------------------------------------------------------------|
G|----------------------------6-6-6-6-6-6-6-6--4-4-4-4-4-4-4-4----------4---------| 2x 
D|-4-4-4-4-4-4-4-4-4-4-4-4-4--6-6-6-6-6-6-6-6--4-4-4-4-4-4-4-4--4-4-4-4-4-4-4-4-4-|
A|-4-4-4-4-4-4-4-4-4-4-4-4-4--4-4-4-4-4-4-4-4--2-2-2-2-2-2-2-2--4-4-4-4-2-4-4-4-4-|
E|-2-2-2-2-2-2-2-2-2-2-2-2-2------------------------------------2-2-2-2---2-2-2-2-|


Verso:

e|---------------------------------------|
B|---------------------------------------|
G|-6-6-6-6-6-6-6-6--4-4-4-4--------------|
D|-6-6-6-6-6-6-6-6--4-4-4-4--4-4-4-4-4-4-|
A|-4-4-4-4-4-4-4-4--2-2-2-2--4-4-4-4-4-4-|
E|---------------------------2-2-2-2-2-2-|

C#                                 B                     F#
Are you locked up in a world that's been planned out for you?
C#                           B               F#
Are you feeling like a social tool without a use?

Refrão:

e|---------------------------------------------------------------------------------|
B|---------------------------------------------------------------------------------|
G|-4-4-4-4--------------4-4-4-4-------------4-4-4-4--------------6-6-6-6-6-6-6-6---|
D|-4-4-4-4--4-4-4-4-4-4-4-4-4-4-4-4-4-4-4-4-4-4-4-4--4-4-4-4-4-4-6-6-6-6-6-6-6-6-4-|
A|-2-2-2-2--4-4-4-4-4-4-2-2-2-2-4-4-4-4-4-4-2-2-2-2--4-4-4-4-4-4-4-4-4-4-4-4-4-4-4-|
E|----------2-2-2-2-2-2---------2-2-2-2-2-2----------2-2-2-2-2-2-----------------2-|

B          F#      B       F#  
Scream at me until my ears bleed
B           F#           C#    F#
I'm taking heed just for you


------------------------------------------------------------------------------------

Pt 1:
C -x---------------|-----------------|
H -----x---x---x---|-x---x---x---x---|
S -----o-------o---|-----o-------o---|
B -o---------o---o-|---o-------o-----|


Pt 2:
H -x---x---x---x---|
S -----o-------o---|
B -o---------o---o-|
 ______________________________________________________
|1.2.5.    |3.6.7.      |4.         |
H -x---x---x---x---|-x---x---x---x---|-x---x---x---x---|
S -----o-------o---|-----o-------o---|-----o-------o---|
B ---o-----o-o-----|---o-----o-o---o-|---o---o---o---o-|


Pt 2(continued)
H -x---x---x---x---|-x---x---x---x-xx|-x-x-x-x-x-x-x-x-|-x-x-x-X---------|
S -----o-------o---|-----o-------o---|-----o-------o---|-----o---oooooooo|
B -o-------o-o---o-|---o---o---o-----|-o-------o-o-----|-o-o---o---------|


Pt 3:
C -x---------------|-----------------|-x-------------x-|
Rd---x-x-x-x-x-x-x-|-x-x-x-x-x-x-x-x-|---x-x-x-x-x-x---|
S -----o-------o---|-----o-------o---|-----o-------o---|
B -o-------o-o---o-|---o---o---o---o-|-o-------o-o---o-|
 ____________________________________
|1.    |2.      |
Rd-x-x-x-x-x-x-x-x-|-----------------|
S -----o-o---------|-o----------oo-o-|
T -------------o-o-|-----o-o---------|
B ---o-----o-o-----|-----------------|


Pt 4:
  ----repeat-4x----|
C -x---------------|-----------------|-x-------x-----x-|
H ---x-x-x-x-x-x-x-|-x-x-x-x-x-x-x---|---x-x-x---x-x---|
S -----o-------o---|-----o-------o-oo|-----o-------o---|
B -o-------o-o---o-|-o-------o-o-----|-o-------o-o---o-|


Pt 5:
C -x---------------|-----------------|-x---x---------x-|-----------------|
H ---x-x-x-x-x-x-X-|-x-x-x-x-x-x-x-xx|---x---x-x-X-x---|-x-x-x-x-x-x-x-x-|
S -----o-------o---|-----o-------o---|-----o-------o---|-----o-------o---|
B -o-------o-o---o-|---o-----o-o-----|-o-------o-o---o-|---o-----o-o---o-|


Pt 5(continued)
C -----------------|-x---------------|-----------------|-x---x---------x-|
H -x-x-x-x-x-x-x-x-|---x-x-x-x-x-x-X-|-x-x-x-X-x-X-x-x-|---x---x-x-X-x---|
S -----o-------o---|-----o-------o---|-----o-------o---|-----o-------o---|
B ---o-----o-o---o-|-o-------o-o---o-|---o---o---o---o-|-o-------o-o---o-|


Pt 5(continued)
C -x---------------|-----------------|-x-------------x-|-----------------|
H ---x-x-x-x-x-x-x-|-x-x-x-x-x-x-x-x-|---x-x-x-x-X-x---|-x-x-x-x-x-x-x-x-|
S -----o-------o---|-----o-------o---|-----o-------o---|-----o-------o---|
B -o-------o-o---o-|---o-----o-o-----|-o-------o-o---o-|---o-----o-o-----|


Pt 5(continued)
C -x-----------x---|-----x-------x---|-x---x---------x-|-----------------|
H ---x-x-x-x-x---x-|-x-x---x-x-x---x-|---x---x-x-X-x---|-x---------------|
S -----o-------o---|-----o-------o---|-----o-------o---|-----oooo--------|
T -----------------|-----------------|-----------------|---------oooo----|
F -----------------|-----------------|-----------------|-------------oooo|
B -o-------o-o-----|-o-o---o---o-----|-o-------o-o---o-|-----------------|


Pt 6:
C -x-------------x-|-----------------|-x-------------x-|
Rd---x-x-x-x-x-x---|-x-x-x-x-x-x-x-x-|---x-x-x-x-x-x---|
S -----o-------o---|-----o-------o---|-----o-------o---|
B -o-------o-o---o-|---o---o---o---o-|-o-------o-o---o-|
 ____________________________________
|1.    |2.      |
Rd-x-x-x-x-x-x-----|-----------------|
S -----o-o---------|-o----------oo-o-|
T -------------oooo|-----o-o---------|
B -o-o-----o-o-----|-----------------|


Pt 7:
  ----repeat-2x----|
C -x---------------|-x---------------|-x---------------|-x-------------x-|
H ---x-x-x-x-x-x-x-|---x-x-x-x-x-x---|---x-x-x-x-x-x-x-|---x-x-x-x-x-x---|
S -----o-------o---|-----o-------o-oo|-----o-------o---|-----o-------o---|
B -o-------o-o---o-|-o-------o-o-----|-o-o---o-o-o---o-|-o-o---o-o-o---o-|


Pt 7(continued)
C -----x---------x-|-----------------|
H -x-x---x-x-X-x---|-x-X-x-X---------|
S -----o-------o---|-----o---oooo--oo|
T -----------------|-------------oo--|
B -o-------o-o---o-|---o---o---------|


Pt 8:
C -x---x---------x-|-----------------|-x-------------x-|-----------------|
H ---x---x-x-X-x---|-x-x-x-x-x-x-x-x-|---x-x-x-x-x-x---|-x-x-x-X-x-X-x-X-|
S -----o-------o---|-----o-------o---|-----o-------o---|-----o-------o---|
B -o-------o-o---o-|---o-----o-o---o-|-o-------o-o---o-|---o---o---o---o-|


Pt 8(continued)
C -x---x-------x---|-----x-------x---|-x---x---------x-|-----------------|
H ---x---x-x-x---x-|-x-x---x-x-x---x-|---x---x-x-X-x---|-x---------------|
S -----o-------o---|-----o-------o---|-----o-------o---|-----oooo--------|
T -----------------|-----------------|-----------------|---------oooo----|
F -----------------|-----------------|-----------------|-------------oooo|
B -o-------o-o-----|-o-o---o---o-----|-o-------o-o---o-|-----------------|


Pt 8(continued)
C -x-------------x-|-----------------|-x-------------x-|-------------x---|
H ---x-x-x-x-x-x---|-x-x-x-x-x-x-x-x-|---x-x-x-x-x-x---|-x-x-x-x-x-x---x-|
S -----o-------o---|-----o-------o---|-----o-------o---|-----o-------o---|
B -o-------o-o---o-|---o-----o-o-----|-o-------o-o---o-|---o-----o-o-----|


Pt 8(continued)
C -x-----------x---|-----x-------x---|-x---x---------x-|-----------------|
H ---x-x-x-x-x---x-|-x-x---x-x-x---x-|---x---x-x-X-x---|-x---------------|
S -----o-------o---|-----o-------o---|-----o-------o---|-----oooo----oooo|
T -----------------|-----------------|-----------------|---------oooo----|
B -o-------o-o-----|-o-o---o---o-----|-o-------o-o-----|-----------------|


Pt 9:
C -x-------------x-|-----------------|-x---x---------x-|-----------------|
Rd---x-x-x-x-x-x---|-x-x-x-x-x-x-x-x-|---x---x-x-x-x---|-x-x-x-x-x-x-----|
S -----o-------o---|-----o-------o---|-----o-------o---|-----o-o-----oooo|
B -o-------o-o---o-|---o---o---o---o-|-o-------o-o---o-|---o-----oo------|


Pt 9(continued)
C -x-------------x-|-----------------|-x-------------x-|-----------------|
Rd---x-x-x-x-x-x---|-x-x-x-x-x-x-x-x-|---x-x-x-x-x-x---|-----------------|
S -----o-------o---|-----o-------o---|-----o-------o---|-o----------oo-o-|
T -----------------|-----------------|-----------------|-----o-o---------|
B -o-------o-o---o-|---o---o---o---o-|-o-------o-o---o-|-----------------|


Pt 10:
C -x---------------|
H ---x-x-x-x-x-x-x-| repeat
S -----o-------o---|  once
B -o-------o-o---o-|
 __________________
|1.2.    |
C -x---------------|
H ---x-x-x-x-x-x---|
S -----o-------o-oo|
B -o-------o-o-----|


Pt 10(continued)
C -x-------x-------|-x---------------|-x---------------|
H ---x-x-x---x-x-x-|---x-x-x---------|-----------------|
S -----o-------o---|-----o---oooooooo|-----------------|
B -o-------o-------|-o---------------|-o---------------|


Accueil | Tablatures | Compos | Blog | Forum | Annuaire | Contact