Tudo Nos é Dado(só nos falta a Fé) - Mato Seco

Partition transcrite par everton
Instruments : Partition guitare, Partition basse
Riff 1 Versos

G|-------------------------------------------------------------------------|
D|-------------------------------------------------------------------------|
A|---7-5-7--0--5-3-5--3-1-3--0—3-5-3--2-5---------------------------------|
E|-------------------------------------------------------------------------|

Riff 2 (nada como um dia após outro que virá........)

G|-------------------------------------------------------------------------|
D|-------------------------------------------------------------------------|
A|-3-3-3--3---5-5-5--5---7-7-7--7---5---3-3-3--3--5-5-5--5--7-7-7--7-------|
E|-------------------------------------------------------------------------|

Riff 3 (então pra que .......)

G|-------------------------------------------------------------------------|
D|-------------------------------------------------------------------------|
A|-0--0-0-0--3-2-----0--0-0-0--3-2--------------------2------------------2-|
E|---------------5-----------------5---0--0-0--0--3-2-----0--0-0--0--3-2---|

------------------------------------------------------------------------------------------


Tom: G
Riff da Intro:


E|---------------------------------------------------------------------|
B|--------7-8-7-----------7-8-7-----------7-8-7------------------------|
G|--9-7-9-------9-7-9-7-9-------9-7-9-7-9-------9-7-9------------------|
D|---------------------------------------------------------------------|
A|---------------------------------------------------------------------|
E|---------------------------------------------------------------------|


1° Riff:


E|---------------------------------------------------------------------|
B|--/12-10-8-7-8-7-----------------------------------------------------|
G|----------------9----------------------------------------------------|
D|---------------------------------------------------------------------|
A|---------------------------------------------------------------------|
E|---------------------------------------------------------------------|


2° Riff:


E|--/12-10----------10h12----------------------------------------------|
B|--------12-10-12-----------------------------------------------------|
G|---------------------------------------------------------------------|
D|---------------------------------------------------------------------|
A|---------------------------------------------------------------------|
E|---------------------------------------------------------------------|


3° Riff:

E|-------10-10h12-10---------------------------------------------------|
B|-10-12-------------12------------------------------------------------|
G|---------------------------------------------------------------------|
D|---------------------------------------------------------------------|
A|---------------------------------------------------------------------|
E|---------------------------------------------------------------------|


Em              D                     C    D (1°riff)
Ele acordou em mais um santo dia de chuva
          Em
Abriu os olhos e sorriu
 D                       C             D (2°riff)
Olhou o mundo com a grandeza de um rei
 Em          D                C  D (3° riff)
E respirou o ar da liberdade e se lembrou
         Em              D
Que o caminhar livre de um homem
C                    D       C
Nenhum dinheiro pode comprar

C            D                      Em
Nada como um dia após o outro para estar
    D                      C   D              Em
Preparado para guerra que virá   diferente amanhã
C            D                      Em
Nada como um dia após o outro para estar
    D                      C   D              Em
Preparado para guerra que virá   diferente amanhã


   ( Em D C D )
E|---------------------------------------------------------------------|
B|--------7-7h8---------7-7h8-7----------7-7h8----------7-7h8-7--------|
G|--9-7-9--------9-7-9------------9-7-9----------9-7-9----------7-7h9--|
D|---------------------------------------------------------------------|
A|---------------------------------------------------------------------|
E|---------------------------------------------------------------------|


Em               D              C          D
E seguindo seu caminho rumo ao céu tenta fazer
    Em          D        C  D
Sua parte para sempre estar
  Em            D
Em perfeita harmonia
 C                 D        Em         D
Com sua verdadeira face e brilhar e brilhar
      C                        D               C
Intensamente até que possa iluminar toda escuridão
     D              Em                             C
Vitorioso  já não se preocupava mais em ser um vencedor
             D
Ao olhos dos outros
       Em                               C
Sabia que era mais difícil dominar a si próprio
     D                    Em
Pois tudo nos é dado só nos falta fé
                      C             D     Em
Pois tudo nos é dado só nos falta a fé  a fé


   (Em  D  C  D)
E|--7------------7----------7--7-10--8-7---7---------------------------|
B|----10--8-7------10--8-10-------------------8---10--7-8--------------|
G|------------9--------------------------------------------------------|
D|---------------------------------------------------------------------|
A|---------------------------------------------------------------------|
E|---------------------------------------------------------------------|


( Em  D  C  D ) 3x

(essa tablatura é tocada na parte letra entre aspas)

E|------------------------------------12---|---------------------------|
B|----8-10h12p10-8-7-8---8-10h12p10-8------|----8-10h12p10-8-----8h10--|
G|--9------------------9-------------------|--9--------------9--9------|
D|-----------------------------------------|---------------------------|
A|-----------------------------------------|---------------------------|
E|-----------------------------------------|---------------------------|


"Pois tudo nos é dado só nos falta fé
Pois tudo nos é dado só nos falta fé
Pois tudo nos é dado só nos falta fé
Pois tudo nos é dado”

(Am  Em ) ( tablatura tocada na parte entre aspas abaixo)


E|---------------------------------------------------------------------|
B|--8h10-12-10-8-------10-8-------------------------------8h10-12-10-8-|
G|---------------9-7h9------9-7h9---7h9-7-7h9--7h9-7-7h9---------------|
D|---------------------------------------------------------------------|
A|---------------------------------------------------------------------|
E|---------------------------------------------------------------------|


E|-----------10----10h12-15-12-10----10-----10h12-15-12----------------|
B|---8-10-12----12----------------12----12-----------------------------|
G|-9-------------------------------------------------------------------|
D|---------------------------------------------------------------------|
A|---------------------------------------------------------------------|
E|---------------------------------------------------------------------|


"Então pra que dificultar tanto se as coisas são tão simples
Pra que querer criar atalhos se existe um só caminho
Existe um só caminho”

(Em  D  C  D)
Pois tudo nos é dado só nos falta fé
Pois tudo nos é dado só nos falta fé
Pois tudo nos é dado só nos falta a fé  a fé

Em         D                 C                D
E tranquilamente ele fecha os olhos sorrindo feliz
    Em             D        C                   D
E do alto de sua nobreza senhor de si mesmo descansa
   Em          D                C   D
Sua alma na sublime pureza de Sião
    Em        D            C      D         Em  D        C   D
Sua alma na sublime  na sublime pureza de Siãaaaao  de Siaaaaão
     Em      D          C       D        Em  D        C   D
Descansa sua alma na sublime pureza de Siãaaaao  de Siaaaaão


E|-/7-----------/7---------/7--7-10--8-7---7---------------------------|
B|----10--8-7------10--8-10-------------------8---10--7-8--------------|
G|------------9--------------------------------------------------------|
D|---------------------------------------------------------------------|
A|---------------------------------------------------------------------|
E|---------------------------------------------------------------------|


E|------------------------------------12------------------------------|
B|----8-10h12p10-8-7-8---8-10h12p10-8---------------------------------|
G|--9------------------9----------------------------------------------| (repete até o fim
da música)
D|--------------------------------------------------------------------|
A|--------------------------------------------------------------------|
E|--------------------------------------------------------------------|

       Em           D             C
Pois tudo nos é dado  tudo nos é dado
        D     Em D C D ...
Só nos falta fé


PG SP Brasil

Accueil | Tablatures | Compos | Blog | Forum | Annuaire | Contact