Christopher Colombus - Burning Spear

Partition transcrite par i-talman
Instruments : Partition basse
G|---------------------------------------|
D|---------------------------------------|
A|----5------------5-5-4-4-3---3--5--5---|
E|-1-----1-1-----------------------------|


Je pense qu'elle est assez juste ...
Partition transcrite par Amael
Instruments : Partition guitare, Partition basse
Intro :
  / / / G / / / G / / / D / C /////
G|---------------------------------|
D|------5--------------------------|
A|----------------------5---3------| x2
E|--3-------3-3--------------------|


Riddim :
  / / / G / / / G / / / G / / / G / / / C / / / C / / / D / / / D
G|----------------------------------------------------------------|
D|----------------------------------------------------------------|
A|----------------------------5-5-3-2-0-------------5-5---0-0-5-0-|
E|--3-------------3-3-3-------------------------------------------|
Partition transcrite par zagaya
Instruments : Partition basse
Intro :
G|-------------------|
D|-------------------|  
A|-----------5---3---|  x2
E|-3---333-----------|


Riddim :
G|-----------------------------------------|
D|-----------------------------------------|
A|----------55---33---0----55---00---55----|  all along ...
E|-3---33-------------------------------3--|

Partition transcrite par ahmoudou
Instruments : Partition basse
Intro :
G|--------------------|--------------------|
D|--------------------|--------------------|
A|-5--5-5--5----5-3---|-5--5-5--5----5-3---|
E|--------------------|--------------------|


Riddim : 
G|--------------------|--------------------|
D|-5------------------|--------------------|
A|----7-5--7-6-55-0---|-3-5--3-4-55--------|
E|--------------------|-------------3------|

Partition transcrite par ElviDo
Instruments : Partition guitare, Partition basse, Partition clavier
Chords :

G / Bm / Am / D

Intro

G|---------------|
D|---------------|
A|-----------5-3-|
E|--3--33-3------| x2

Rest of the song :

G|-----------------------------------|
D|-----------------------------------|
A|------------55-3-2-----55------5---|
E|-3--3--33----------5--------55---5-|


To contact me for a tab or something else : campier@gmail.com

Accueil | Tablatures | Compos | Blog | Forum | Annuaire | Contact