Zombie - Cranberries

Partition transcrite par superwoman
Instruments : Partition guitare
Accords : Em - C - G - D/F#

Another head hangs lowly 
child is slowly taken
and the violence caused such silence
Who are we mistaken ?

etc .......


refrain: in your head,in your head
         zombie (3x)
         Hey hey hey.what's in your head
         in your head
         zombie (3x)
Partition transcrite par skagirl
Instruments : Partition guitare
-0-00-00--0-00-00--0-00-00--0-00-00--
-0-00-00--0-00-00--0-00-00--0-00-00--
-0-00-00--0-00-00--0-00-00--0-00-00--   
-2-22-22--2-22-22--0-00-00--0-00-00--
-2-22-22--3-33-33--2-22-22--0-00-00--
-0-00-00--0-00-00--3-33-33--2-22-22--   fois 8 environ




---------------------------------
---------------------------------
---------------------------------
---------------------------------
--------------------------------3
7-8----5-7----3-5----2-3----00---
Partition transcrite par the_gentleman
Instruments : Partition guitare
Mim  : 022000
Do7M : 032000
Sol6 : 320000
Ré*  : 200230

Enchainer tous ces accords jusqu'a la fin...
Bonne gratte!!;)
Partition transcrite par marion forever love
Instruments : Partition basse
G--------|--------|-------|--------|-------|-------|-------|-------|
D--------|--------|-------|--------|-------|-------|-------|-------|
A--------|--------|3-3-3-3|-3-3-5-3|-------|-------|-------|-------|
E-0-0-0-0|-0-0-3-0|-------|--------|3-3-3-3|3-3-5-3|2-2-2-2|2-2-3-2|


G--------|-------|--------|---------|-----------------------------------|
D--------|-------|--------|---------|-----------------------------------|
A--------|-------|-3-3-3-3|-5-3-----|-----------------------------------|
E-0-0-0-0|0-0-3-0|--------|----3-2-0|-----------------------------------|

Donc comme vous avez pu le constater la mélodie est en 4 temps, 
elle est assez simple à jouer et pour les problèmes de rythme 
ça se retrouve à l'oreille. 
Partition transcrite par Guitar Clem
Instruments : Partition guitare
------------------------------------------------------------------
------------------------------------------------------------------  
------------------------------------------------------------------   en 
-----------------------------0------------------------------------  boucle
-----------------3-3-3-3-3-3---3-------------0--------------------
-0-0-0-0-0-0-3-0-----------------3-3-3-3-3-3---3-2-2-2-2-2-3-2-0--

Accueil | Tablatures | Compos | Blog | Forum | Annuaire | Contact