Malcom X - Dennis Brown

Transcribed by iksar
Instruments : Guitar, Bass
Ca faisait longtemps je voulais le faire donc voilĂ  un bon vieux roots de Denis Brown,
morceaux qui Ă  mon gout devraient ĂȘtre jouer autant que ceux de Marley ... 


        C#m               E                 G#m          F#       G#m   
G|----------------|-----------------|-----------------|-----------------|
D|------------6-6-|-----------------|-----------------|-----------------|
A|4-4-----7-7-----|7-7--------------|-------------6-6-|9-9-9----11-11-11|
E|----------------|----7-7-7--------|4-4-----7-7------|-----------------|

        C#m             G#m                C#m                G#m
G|----------------|-----------------|-----------------|-----------------|
D|------------6-6-|-----------------|-------------6-6-|-----------------|
A|4-4-----7-7-----|-------------6-6-|4-4-----7-7------|---6---------6---|
E|----------------|4-4-----7-7------|-----------------|4-------4--------|


      C#m               E                 G#m          F#       G#m 
G|----------------|-----------------|-----------------|-----------------|
D|------------6-6-|-----------------|-----------------|-----------------|
A|4-4-----7-7-----|7-7--------------|-------------6-6-|9-9-9----11-11-11|
E|----------------|----7-7-7--------|4-4-----7-7------|-----------------|

       C#m             G#m                C#m                G#m
G|----------------|-----------------|-----------------|-----------------|
D|------------6---|-----------------|-------------6---|-----------------|
A|4-4-----7-7-----|-------------6-6-|4-4-----7-7------|-------------6---|
E|----------------|4-4-----7-7------|-----------------|4-4-----7-7------|


     C#m               E                 G#m          F#       G#m 
G|----------------|-----------------|-----------------|-----------------|
D|------------6---|-----------------|-----------------|-----------------|         
A|4-4-----7-7-----|7-7--------------|-------------6---|9-9-9----11-11-11| __       
E|----------------|----7-7-7--------|4-4-----7-7------|-----------------|   I      
                                                                            I 
      C#m               E                 G#m              G#m              I X2    
G|----------------|-----------------|-----------------|-----------------|   I      
D|------------6---|-----------------|-----------------|-----------------| __I    
A|4-4-----7-7-----|7-7--------------|-------------6---|--------------6--|
E|----------------|----7-7-7--------|4-4-----7-7------|4-4-----7-7------|

     C#m               E                 G#m          F#       G#m 
G|----------------|-----------------|-----------------|-----------------|
D|------------6---|-----------------|-----------------|-----------------|         
A|4-4-----7-7-----|7-7--------------|-------------6---|9-9-9----11-11-11|        
E|----------------|----7-7-7--------|4-4-----7-7------|-----------------|

     C#m               G#m                 C#m                  G#m 
G|----------------|-----------------|-----------------|-----------------|
D|--------------6-|-----------------|---------------6-|-----------------|
A|4-4-----7-7-----|-------------6---|4-4-----7-7------|---6---------6---|
E|----------------|4-4-----7-7------|-----------------|4-------4--------|


       C#m               E                 G#m           F#      G#m 
G|----------------|-----------------|-----------------|-----------------|
D|------------6---|-----------------|-----------------|-----------------|         
A|4-4-----7-7-----|7-7--------------|-------------6---|9-9-9----11-11-11| __       
E|----------------|----7-7-7--------|4-4-----7-7------|-----------------|   I      
                                                                            I 
    C#m               E                 G#m                G#m              I X2    
G|----------------|-----------------|-----------------|-----------------|   I      
D|------------6---|-----------------|-----------------|-----------------| __I    
A|4-4-----7-7-----|7-7--------------|-------------6---|--------------6--|
E|----------------|----7-7-7--------|4-4-----7-7------|4-4-----7-7------|

       C#m               E                 G#m           F#      G#m 
G|----------------|-----------------|-----------------|-----------------|
D|------------6---|-----------------|-----------------|-----------------|         
A|4-4-----7-7-----|7-7--------------|-------------6---|9-9-9----11-11-11|        
E|----------------|----7-7-7--------|4-4-----7-7------|-----------------|

      C#m               G#m                 C#m                G#m 
G|----------------|-----------------|-----------------|-----------------|
D|--------------6-|-----------------|---------------6-|-----------------|
A|4-4-----7-7-----|-------------6---|4-4-----7-7------|-------------6---|
E|----------------|4-4-----7-7------|-----------------|4-4----7-7-------|

       C#m               E                 G#m           F#      G#m 
G|----------------|-----------------|-----------------|-----------------|
D|------------6-6-|-----------------|-----------------|-----------------|         
A|4-4-----7-7-----|7-7--------------|-------------6---|9-9-9----11-11-11|        
E|----------------|----7-7-7--------|4-4-----7-7------|-----------------|

       C#m               G#m                 C#m              G#m 
G|----------------|-----------------|-----------------|-----------------|
D|--------------6-|-----------------|-------------6-6-|-----------------|
A|4-4-----7-7-----|-------------6-6-|4-4-----7-7------|-------------6---|
E|----------------|4-4-----7-7------|-----------------|4-4----7-7-------|

      C#m               E                 G#m           F#      G#m 
G|----------------|-----------------|-----------------|-----------------|
D|------------6---|-----------------|-----------------|-----------------|         
A|4-4-----7-7-----|7-7--------------|-------------6---|9-9-9----11-11-11|        
E|----------------|----7-7-7--------|4-4-----7-7------|-----------------|

       C#m               G#m                C#m                 G#m 
G|----------------|-----------------|-----------------|-----------------|
D|------------6-6-|-----------------|-------------6-6-|-----------------|
A|4-4-----7-7-----|-------------6-6-|4-4-----7-7------|-------------6---|
E|----------------|4-4-----7-7------|-----------------|4-4----7-7-------|



VoilĂ  pour le reste faut Ă©couter pour les petites finesses.  


Home | Tablatures | Compos | Blog | Forum | Directory | Contact