A la faveur de l'automne - Tété

Partition transcrite par Thibault
Instruments : Partition guitare
A la faveur de l'automne interprété par Tété      


          C                 Em
E|--------------------------------------------------0--0-----|
B|-----0-------0-------0------0---------------0-----0--0-----|
G|---0-------0-------0------0---------0-----2---2---0--0-----|
D|-2-----2-1-----1-0----0s3-----3---2---2-1---------2--0h2---|
A|--------------------------------3-----------------2--2-----|
E|--------------------------------------------------0--0-----|
Posté devant la fenêtre je guette les âmes ésseulées A la faveur de l'automne 

         C    G
E|----------------------------------------------------------|
B|-----0-------0-------0-------0---------------0---3--------|
G|---0-------0-------0-------0---------0-----2---2-0--------|
D|-2-----2-1-----1-0-----0s3-----3---2---2-1-------0--0-4-0-|
A|---------------------------------3---------------2--------|
E|-------------------------------------------------3--------|
Posté devant la fenêtre je regrette de n'y avoir songer maintenant que tu abandonnes 


   C  G/B  Am   C   G/B Am
E|-0-------0----------------------0-------0-------------------------|
B|-1--3----1----------------------1---3---1-------------------------|
G|-0--0----2----------0-2---------0---0---2-------------------------|
D|-2--0----2--------0-----2-0-----2---0---2------------5-7p5--------|
A|-3--2----0------------------3-2-3---2---0--------5s7-------7-5----|
E|------------------------------------------------------------------|
A la faveur de l'automne revient cette douce mélancolie. 
1, 2, 3 ,4 un peu comme on fredonne de meilleures mélodies 

   G          Em                                      
E|----------------------0--0---------|
B|-3--0---0---0-----0---0--0---------|
G|-0--0---0---0--0--2---0--0---------|
D|-0--1---2---3--2--1---2--0h2-------|
A|-2-------------3------2--2---------|
E|-3--------------------0--0---------|
Rivé devant le téléphone j'attends que tu daignes m'appeler que tu te décides enfin. 

          C                 Em  Em                
E|--------------------------------------------------0---0---------------|
B|-----0-------0-------0------0---------------0-----0---0---------------|
G|---0-------0-------0------0---------0-----2---2---0---0------------0--|
D|-2-----2-1-----1-0----0s3-----3---2---2-1---------2---2--0h2-2-2s4----|
A|--------------------------------3-----------------2---2---------------|
E|--------------------------------------------------0---0---------------|
Toi tes allures de garçonnes m'emprisonnent de la monotonie 
De mes journées, de mes nuits 


   C  G/B  Am   C   G/B Am
E|-0-------0----------------------0-------0-------------------------|
B|-1--3----1----------------------1---3---1-------------------------|
G|-0--0----2----------0-2---------0---0---2-------------------------|
D|-2--0----2--------0-----2-0-----2---0---2------------5-7p5--------|
A|-3--2----0------------------3-2-3---2---0--------5s7-------7-5----|
E|------------------------------------------------------------------|
A la faveur de l'automne revient cette douce mélancolie 
1, 2, 3, 4 un peu comme onfredonne de meilleures mélodies 

   C   G/B Am                        C   G/B Am            
E|-0-------0-------------------------0-------0---0---|
B|-1---3---1-------------------------1---3---1---1---|
G|-0---0---2-------------------------0---0---2---2---|
D|-2---0---2------------5-7p5--------2---0---2---2---|
A|-3---2---0--------5s7-------7-5----3---2---0---0---|
E|---------------------------------------------------|
A la faveur de l'automne tu redonnes à ma mélancolie ses couleurs de superscopie

                                                      
E|------------|
B|-0--1--1--3-|
G|-0--0--0--0-|
D|-3--2--1--0-|
A|----------2-|
E|----------3-|
A la faveur de l'automne


E|-------------------------------------------------|
B|-----0-------0-------0-------0---------------0---|
G|---0-------0-------0-------0---------0-----2---2-|
D|-------0-1-----1-2-----2-3-----3---2---2-1-------|
A|---------------------------------3---------------|
E|-3-----------------------------------------------|

  Em       
E|-------------------------------------------------0--0----|
B|-----0-------0-------0-------0---------------0---0--0----|
G|---0-------0-------0-------0---------0-----2---2-0--0----|
D|-------0-1-----1-2-----2-3-----3---2---2-1-------2--0h2--|
A|---------------------------------3---------------2--2----|
E|-3-----------------------------------------------0--0----|
Comment ai-je pu seulement être aussi bête on m'avait prévenu voici la vérité nue. 
   G
E|----------------------------------------------------------|
B|-----0-------0-------0-------0---------------0---3--------|
G|---0-------0-------0-------0---------0-----2---2-0--------|
D|-------0-1-----1-2-----2-3-----3---2---2-1-------0--0-4-0-|
A|---------------------------------3---------------2--------|
E|-3-----------------------------------------------3--------|
Manquerait plus que le mauvais temps s'y mette une goutte de pluie et j'aurai vraiment
tout perdu 

A la faveur de l'automne revient cette douce mélancolie 
1, 2, 3, 4 un peu comme onfredonne de meilleures mélodies 
A la faveur de l'automne tu redonnes à ma mélancolie ses couleurs de superscopie 


G/B  Am Em


                          G      
E|----------------------------------------------------------------------|
B|-----0-------0-----0-------0-------0-------0---------------0---3------|
G|---0-------0-----0-------0-------0-------0---------0-----2---2-0------|
D|---------------------0-1-----1-2-----2-3-----3---2---2-1-------0------|
A|-4-----4-3-------------------------------------3---------------2------|
E|---------------3-----------------------------------------------3------|



  
Partition transcrite par timat76
Instruments : Partition guitare
Intro :

E|----------------------------------------------------------0---0--------|
B|------0---------0---------0---------0-----------------0---0---0--------|
G|----0---------0---------0---------0----------0------1-----0---0--------|
D|--2-----2---1-----1---0-----0---3-----3----2---2--2-------2---0h2------|
A|-----------------------------------------3----------------2---2--------|
E|----------------------------------------------------------0---0--------|
  Posté devant la fenêtre je guette les âmes esseulés à la faveur de l'automne

E|----------------------------------------------------------0------------|
B|------0---------0---------0---------0-----------------0---0------------|
G|----0---------0---------0---------0----------0------1-----0------------|
D|--2-----2---1-----1---0-----0---3-----3----2---2--2-------2--0--4--0---|
A|-----------------------------------------3----------------2------------|
E|----------------------------------------------------------0------------|
  Posté devant la fenêtre je regrette de n'y avoir songer à la faveur de l'automne

Accueil | Tablatures | Compos | Blog | Forum | Annuaire | Contact