I like it like that - Dennis Brown

Transcribed by leinadaljure
Instruments : Bass

G|---------5-------------------|--------6-----6--------------------|
D|----5-------------5----7-----|-----7-----7-----------5----7------|
A|-----------------------------|-----------------------------------|
E|-----------------------------|-----------------------------------|



Giving me your love .....
G|-----------------------------|------------------------------|
D|-------------9-9-9-9---------|-------------10-10-10-10------|
A|-----7-7-7-7---------7-7-----|-----8-8-8-8-------------8-8--|
E|-----------------------------|------------------------------|


G|-----------------------------|------------------------------|
D|-------------9-9-9-9---------|-------------10-10-10-10------|
A|-----7-7-7-7---------7-7-----|-----8-8-8-8-------------8-8--|
E|-----------------------------|------------------------------|


i like it like that...


G|---------5-------------------|--------6-----6--------------------|
D|----5-------------5----7-----|-----7-----7-----------5----7------|
A|-----------------------------|-----------------------------------|
E|-----------------------------|-----------------------------------|

Home | Tablatures | Compos | Blog | Forum | Directory | Contact