Love I can feel - Dennis Brown

Transcribed by leinadaljure
Instruments : Bass

x1 and make a variation
G|--------------------|--------------------|
D|-3--5555-------5----|-5--7777-------7----|
A|---------3---6------|---------5---8------|
E|--------------------|--------------------|


Variations:


G|--------------------|--------------------|
D|-3-5-3-5-------5----|-5--7777-------7----|
A|---------3---6------|---------5---8------|
E|--------------------|--------------------|

G|--------------------|--------------------|
D|-3/5-3/5-------5----|-5--7777-------7----|
A|---------3---6------|---------5---8------|
E|--------------------|--------------------|


G|--------------------|--------------------|
D|-3--5555--------5---|-5--7777-------7----|
A|---------3--336-----|---------5-558------|
E|--------------------|--------------------|

G|--------------------|--------------------|
D|-3-5-3-5-------5----|-5--7777-------7----|
A|---------3---6------|---------5-558------|
E|--------------------|--------------------|

G|--------------------|--------------------|
D|-3/5-3/5-------5----|-5--7777-------7----|
A|---------3---6------|---------5-558------|
E|--------------------|--------------------|



Home | Tablatures | Compos | Blog | Forum | Directory | Contact