A little bit more - Dennis Brown

Transcribed by leinadaljure
Instruments : Bass
G|----------------|-----------------|-------------------|
D|----------------|-----------------|-------------------|
A|----3---------3-|----5----------5-|----3------3-5-----|
E|---------5------|----------7------|---------55-----5--|


IN: "yes it was...love..lovee..."

G|-------------------------|
D|-------------------------|
A|-----4---44-3---33--66---|
E|--55---------------------|

Home | Tablatures | Compos | Blog | Forum | Directory | Contact