Not the way - Gregory Isaacs

Partition transcrite par zagaya
Instruments : Partition basse
Riddim:

 |:                    :|
G|----------------------|
D|----------------------|
A|-----3-4--8---4---6---|  
E|-4-6--------6---2---4-| 
Partition transcrite par delu91
Instruments : Partition basse

G|----------------------------------------------------------------|
D|----------------------------------------------------------------|
A|------------------------------------------------------------3---| only one time
E|------------------------------------------------------4---6-----|

  REb            SIbm            SOLb             LAb
G|----------------------------------------------------------------|
D|----------------------------------------------------------------|
A|4-----------4-----------------------------------------------3---| all along ...
E|----------------6-----------6---2-----------2---4-----4---6-----|


Accueil | Tablatures | Compos | Blog | Forum | Annuaire | Contact