Sweet dreams - Marylin Manson

Partition transcrite par ghostkiller
Instruments : Partition guitare
E|--------------------------------------------------------------------------------------|
G|--------------------------------------------------------------------------------------|
B|--------------------------------------------------------------------------------------|
D|--------------5---------6---------5----------------------sl.-------------------sl.----|
A|--3----3----------3---------3---------3----------------6----8----------------5----6---|
E|-----------------------------------------------4----4----------------3----3-----------|
Partition transcrite par Stannabass
Instruments : Partition basse
Basse :

G|-----------------------------------|
D|-----7---8---7---------------------|
A|-5-5---5---5---8-----8--10-----7-8-|
E|-----------------6-6-------5-5-----|
Partition transcrite par theboss
Instruments : Partition guitare
Alors voici Sweet Dreams de Marilyn Manson, même si c'est une reprise ... moi je le vois
plutôt comme ça:

E|---------------------------------|
B|---------------------------------|
G|---------------------------------|
D|------2---3---2------------------|
A|--0-0---0---0-------3_5-----2_3--|
E|----------------1-1-----0-0------|

et puis on recommence encore

_ = glisser jusqu'à


Bon ben voilà ! Good gratte !!
Partition transcrite par gentil casper
Instruments : Partition guitare
E|---------------------------|
B|---------------------------|
G|---------------------------|
D|-----5--6--5---------------|
A|-3-3---3--3-----5-6----4-5-|
E|-------------4-4----3-3----|


Il faut appuyer sur la case 6 de la corde Ré avec le petit doigt.
Amusez vous bien !
Partition transcrite par toby
Instruments : Partition guitare
Alors voilà j'ai trouvé plus simple et en plus c'est la bonne tonalité (jouez en même
tant que la musique et vous verrez).

E|------------------------------------|
B|------------------------------------|
G|-----0---1--0-----------------------|
D|------------------------------------|
A|-3-3---3--3---3-----1>3-----0-1-----|
E|----------------4-4-----3-3-----3---| et vous continuez ainsi de suite 


Pour information  > = faire glisser le doigt jusqu'à ...

Voilà ... bonne gratte !
Partition transcrite par bigay
Instruments : Partition guitare
Salut, moi perso je la joue comme ça :

E|-----------------------------------------|
B|-----------------------------------------|
G|-----------------------------------------|
D|-----------------------------------------|
A|------9---10---9-----------5-6------4-5--|  x4
E|--7-7---7----7---7-----3-3------2-2------|

puis enchaîner le reste et c'est joué !

E|-------------------------------------------------|
B|-------------------------------------------------|
G|-------------------------------------------------|
D|-------------------------------------------------|
A|-5-5-5-5-5-5-5-5-5-5-5-5-5-4-4-9-9-9-9-9-9-9-9-9-|
E|-3-3-3-3-3-3-3-3-3-3-3-3-3-2-2-7-7-7-7-7-7-7-7-7-|

E|-------------------------------------------------|
B|-------------------------------------------------|
G|-------------------------------------------------|
D|-------------------------------------------------|
A|-5-5-5-5-5-5-5-4-5-5-5-5-5-5-5-5-4-4-4-4-4-4-4-4-|
E|-3-3-3-3-3-3-3-2-3-3-3-3-3-3-3-3-2-2-2-2-2-2-2-2-|

à jouer en boucle ...
Partition transcrite par obelix19
Instruments : Partition guitare
e|---------------------------------|
B|---------------------------------|
G|---------------------------------|
D|-----2---3---2---------0---------|
A|-0-0---0---0---0-----3-------2-3-|
E|-----------------1-1-----0-0-----|
Partition transcrite par guitariste
Instruments : Partition basse

G|----------------|------------------|
D|------5---6---5-|------------------|
A|--3-3---3---3---|-----6/8-----5/6--|
E|----------------|--4-4-----3-3-----|
Partition transcrite par thea
Instruments : Partition guitare
E|------------------------------------------|
B|------------------------------------------|
G|------------------------------------------|
D|--------------5---------6---------5-------|
A|--3----3----------3---------3---------3---|
E|------------------------------------------|


E|------------------------------------------|
B|------------------------------------------|
G|------------------------------------------|
D|------------6----8----------------5----6--|
A|---4----4----------------3----3-----------|
E|--------------SL.-------------------SL.---|
Partition transcrite par dylan
Instruments : Partition guitare
E|-----------------------------------------|
B|-----------------------------------------|
G|-----------------------------------------|
D|-------2---3--2-2------------------------|
A|---0-0---0--0---------2-h-4------2-h-4---|
E|------------------1-1-------0-0----------|

Voilà c'est simple et je pense que c'est la bonne tab ...
Partition transcrite par routmoutouf
Instruments : Partition guitare

E|-------------------|
B|-------------------|
G|-------------------|
D|-----4--0----------|
A|-2-2--22--7-5------|
E|---------5-3-------|

Partition transcrite par pamplemousse
Instruments : Partition guitare
Je vous propose une autre version pour Sweet Dreams,


Vous jouez çà 7 fois (couplet) :

E|----------------------------------------------------------------------|
B|----------------------------------------------------------------------|
G|----------------------------------------------------------------------|
D|-----5---6---5--------------------------------------------------------|
A|-3-3---3---3---3-----6/8-----5/6--------------------------------------|
E|-----------------4-4-----3-3------------------------------------------|


Ensuite vous enchaînez avec ces accords :

E|----------------------------------------------------------------------|
B|----------------------------------------------------------------------|
G|----------------------------------------------------------------------|
D|-6-6-6-6-6-6-6-6-6-6-6-6-6--5-5--10-10-10-10-10-10-10-10-10-10--6-6-6-|
A|-6-6-6-6-6-6-6-6-6-6-6-6-6--5-5--10-10-10-10-10-10-10-10-10-10--6-6-6-|
E|-4-4-4-4-4-4-4-4-4-4-4-4-4--3-6--8--8--8--8--8--8--8--8--8--8---4-4-4-|

E|----------------------------------------------------------------------|
B|----------------------------------------------------------------------|
G|----------------------------------------------------------------------|
D|-6-6-6-6--5--6-6-6-6-6-6-6--5-5-5-5-5-5-5-----------------------------|
A|-6-6-6-6--5--6-6-6-6-6-6-6--5-5-5-5-5-5-5-----------------------------|
E|-4-4-4-4--3--4-4-4-4-4-4-4--3-3-3-3-3-3-3-----------------------------|


Puis :

E|----------------------------------------------------------------------|
B|----------------------------------------------------------------------|
G|----------------------------------------------------------------------|
D|----------------------------------------------------------------------|
A|-3-------------------3-------------------3----------------------------|
E|---------4-----3-------------4-----3-------------4-----3--------------|


Et pour continuer vous reprenez le couplet, mais en le jouant 5 fois.
Partition transcrite par bouzlait
Instruments : Partition guitare
E|-------------------------------4-------3-----------|
B|-----3--3-------3------3---------------------------|
G|------------5-------6------5-------5-------5-------|
D|---------------------------------------------------|
A|---------------------------------------------------|
E|---------------------------------------------------|

Partition transcrite par Sanruto25
Instruments : Partition guitare
E|----------------------------------|
B|----------------------------------|
G|----------------------------------|
D|----------------------------------|
A|-0-0-7-0-8-0-7-0-----3-5-----2-3--|
E|-----------------1-1-----0-0------|

Voilà ma version 
a+ et bonne gratte
Partition transcrite par Bishop
Instruments : Partition guitare
Intro :
E|---------------------------------|
B|---------------------------------|
G|---------------------------------|  
D|-----5---6---6-------------------|
A|-3-3---3---3---3-----6/8-----5/6-|
E|-----------------4-4-----3-3-----|

/ = glisser


Refrain :
E|-----------------|-----------|-----|-----------------|
B|-----------------|-----------|-----|-5-5-5-5-5-5-5-5-|
G|-6-6-6-6-6-6-6-6-|-6-6-6-6-6-|-5-5-|-5-5-5-5-5-5-5-5-|
D|-6-6-6-6-6-6-6-6-|-6-6-6-6-6-|-5-5-|-3-3-3-3-3-3-3-3-|
A|-4-4-4-4-4-4-4-4-|-4-4-4-4-4-|-3-3-|-----------------|
E|-----------------|-----------|-----|-----------------|
                   |           |     |                 |
       8 fois      |   5 fois  |     |     8 fois      |


Voilà les amis =) bon courage et amusez vous bien =D
Partition transcrite par isma
Instruments : Partition guitare
E|---------------------------------------------|
B|---------------------------------------------|
G|---------------------------------------------|
D|-------2----3-----2--------------------------|
A|--0-0----0-----0-----0-------3--5-------2-3--|
E|------------------------1-1--------0-0-------|

Voilà et bonne gratte :p
Partition transcrite par legratteur
Instruments : Partition guitare
E|------------------|
B|------------------|
G|------------------|
D|---4-5-4----------|
A|-22-2-2-2--57--45-|
E|---------33--22---|


Accueil | Tablatures | Compos | Blog | Forum | Annuaire | Contact