Sitting and watching - Dennis Brown

Transcribed by Yes I
Instruments : Bass
Albums: The Best Of The Joe Gibbs Years, et pleins d'autres.

G|----------------------------------|
D|---------------5-----------7-5----|
A|---------5-7--------------7---7---|
E|-3----------------5---------------|

G|----------------------------------|
D|---------------5------------------|
A|---------5-7----------------7-7---|
E|-3----------------5------5--------|


G|----------------------------------|
D|---------------5-----------7-5----|
A|---------5-7--------------7---7---|
E|-3----------------5---------------|

Variation (facultative car si on respecte le tempo, on retombe sur le bon riff):

G|----------------------------------|
D|---------------5------------------|
A|---------5-7----------------------|
E|-3-----------------3----3--5-5--3-|


ça tourne en boucle: Riff 1 + 2 + 3 + variation si on le souhaite.
Transcribed by Fredbass
Instruments : Guitar, Bass

G|----------------0----|--------------------|
D|----------2----------|----------7--5------|
A|-------4-------------|-------7--------7---|
E|-3-------------------|-5------------------|

G|----------------0----|--------------------|
D|----------2----------|--------------3-----|
A|-------4-------------|------3--5----------|
E|-3-------------------|-5------------------|


     
     Correciones favor de escribir a:
   ***alfredo_leondejuda@hotmail.com***


Home | Tablatures | Compos | Blog | Forum | Directory | Contact