Fade to black - Metallica

Partition transcrite par vincentdu89290
Instruments : Partition guitare

E|--------------------------------|
B|--------------------------------|
G|-------0----------0----------0--|
D|----4-----4-4-4-4---4-4-4-4-----|
A|-2---------2-2-2-----2-2-2------|
E|--------------------------------|





Partition transcrite par dodalex
Instruments : Partition guitare
--------------------------|--------------------------|
--------------------------|--------------------------|
--------0-----------------|--------0-----------------|
-----4-----4-----4-----4--|-----4-----4-----4-----4--|
--2-----------2-----5-----|--0-----------0-----5-----|
--------------------------|--------------------------|
                                                     
--------------------------|--------------------------|
--------------------------|--------------------------|
--------0-----------------|--------2-----------------|
-----4-----4-----4-----4--|-----2-----2-----2-----2--|
--2-----------2-----5-----|--4-----------4-----0-----|
--------------------------|--------------------------|

GO (voir au 1° solo)                                                      
--------------------------|--------------------------|
--------------------------|--------------------------|
--------0-----------------|--------0-----------------|
-----4-----4-----4-----4--|-----4-----4-----4-----4--|
--2-----------2-----5-----|--0-----------0-----5-----|
--------------------------|--------------------------|
                                                     
--------------------------|--------------------------|
--------------------------|--------------------------|
--------0-----------------|--------2-----------------|
-----4-----4-----4-----4--|-----2-----2-----2-----2--|
--2-----------2-----5-----|--4-----------4-----0-----|
--------------------------|--------------------------|
                                                      
--------------------------|--------------------------|
--------------------------|--------------------------|
--------0-----------------|--------0-----------------|
-----4-----4-----4-----4--|-----4-----4-----4-----4--|
--2-----------2-----5-----|--0-----------0-----5-----|
--------------------------|--------------------------|
                                                      
--------------------------|--------------------------|
--------------------------|--------------------------|
--------0-----------------|--------2-----------------|
-----4-----4-----4-----4--|-----2-----2-----2-----2--|
--2-----------2-----5-----|--4-----------4-----0-----|
--------------------------|--------------------------|
                                                      
--------------------------|--------------------------|
--------------------------|--------------------------|
--------0-----------------|--------0-----------------|
-----4-----4-----4-----4--|-----4-----4-----4-----4--|
--2-----------2-----5-----|--0-----------0-----5-----|
--------------------------|--------------------------|

--------------------------|--------------------------|
--------------------------|--------------------------|
--------0-----------------|--------2-----------------|
-----4-----4-----4-----4--|-----2-----2-----2-----2--|
--2-----------2-----5-----|--4-----------4-----0-----|
--------------------------|--------------------------|
                                                      
--------------------------|--------------------------|
--------------------------|--------------------------|
--------0-----------------|--------0-----------------|
-----4-----4-----4-----4--|-----4-----4-----4-----4--|
--2-----------2-----5-----|--0-----------0-----5-----|
--------------------------|--------------------------|

--------------------------|--------------------------|
--------------------------|--------------------------|
--------0-----------------|--------2-----------------|
-----4-----4-----4-----4--|-----2-----2-----2-----2--|
--2-----------2-----5-----|--4-----------4-----0-----|
--------------------------|--------------------------|

1° Solo (à démarer au "go" de l'intro) =
                                                          |-----3----|                    
       Q.      S S  Q.      S  S     Q     Q    Q    S   E   Q    S 
------------------------|----------------------------|----------------------------------|
---------------------7--|----------7-8-10~------8-10-|--12----10----8----8S-10~--L----L-|
------------------7-----|----------------------------|----------------------------------|
--------------/9--------|--9~------------------------|----------------------------------|
------------------------|----------------------------|----------------------------------|
------------------------|----------------------------|----------------------------------|
                                               |----3----|     
  E   S   S  E  E  E  E  E  E     S  E  E.  E  Q    Q    Q     
-------------------------------|------------------------------|
--L--12p-10S-8--7--8--7-----7--|--7S-8--7------7--------------|
-------------------------9-----|------------9-------9----7----|
-------------------------------|------------------------------|
-------------------------------|------------------------------|
-------------------------------|------------------------------|

  Q    H          E    E      H         E  E  E  E     H         Q.     E   
---------------------------|------------------------|----------------------|
---------------------------|---------------------8--|--7~--------L------8--|
-----------------------7S--|--6~--------L--7--6-----|----------------------|
--7----9~--------(9)------|------------------------|----------------------|
---------------------------|------------------------|----------------------|
---------------------------|------------------------|----------------------|


   H.            E   S  S     S  S  S  S  S  S  S  S  S  S  S  S  Q       
-----------------------14-|--19-14-------15-14---------------------------|
--10~------------L--15----|--------15----------15----17-15-14------------|
--------------------------|-----------16----------14----------16-14br----|
--------------------------|----------------------------------------------|
--------------------------|----------------------------------------------|
--------------------------|----------------------------------------------|


                                                     |---3---|              
   Q.       S   S  Q.      S   S     E   E   E   E   S   S   S  E   E   E   
---------------------------------|-----------------------------------------|
---------------------------------|----------14--15--14h-15p-14-----14--15--|
--14~------14h-16----------------|--14--16---------------------16----------|
------------------14------14h-16-|-----------------------------------------|
---------------------------------|-----------------------------------------|
---------------------------------|-----------------------------------------|


   E   E   E   E  Q     E   E      Q     E   E   Q     E   E   
------19--17--15--L----15--17--|--14------------------14--15--|
--14---------------------------|--------15--------------------|
-------------------------------|------------16~--L------------|
-------------------------------|------------------------------|
-------------------------------|------------------------------|
-------------------------------|------------------------------|


   Q     E   E   Q     E   E      Q     E   E  Q     Q     
--14------------------14--15--|--14--------17--L----15----|
--------15--------------------|--------15-----------------|
------------14~--L------------|---------------------------|
------------------------------|---------------------------|
------------------------------|---------------------------|
------------------------------|---------------------------|


   H.           Q        E   E   E   E   E   E   E   E   
--14-----------------|----------------------------------|
---------------------|----------------------------------|
---------------------|--------------------------12--14--|
---------------------|--------------12--14--15----------|
---------------------|--12--14--15----------------------|
---------------------|----------------------------------|


                           |---3---|                           
   E   E   E   E   E   E   S   S   S  E      W                 
--------------12--13--15--13h-15p-13-----|--17----------------|
--12--13--15-------------------------15--|--------------------|
-----------------------------------------|--------------------|
-----------------------------------------|--------------------|
-----------------------------------------|--------------------|
-----------------------------------------|--------------------|


passage clean = 
--x-----0-------------0|----------3--3-0-0----------|
--0h1-1----------1----1|--------1-3------0--0-1/3---|
--2----------0-2------0|----0-2---0------0--0-2/4---|
--2--------2----------2|--2-------0------2--------2-|
--0-------------------3|----------2------2--------2-|
--x-------------------0|----------3------0----------|

à jouer un certain nombre de fois ... ^^'


1° fois où ça dégénère =

|--------------------------|
|--------------------------|
|--4--4--4--4--4--4--4--4--|
|--2--2--2--2--2--2--2--2--|
|--2--2--2--2--2--2--2--2--
|--0--0--0--0--0--0--0--0--|


                                                                             
|--------------------------|-------------------------|----------------------|
|--------------------------|-------------------------|----------------------|
|*--2------2--2------------|--5------5--5------------|--2------2--2----7----|
|*--2------2--2------------|--5------5--5------------|--2------2--2----7----|
|---0------0--0------------|--3------3--3------------|--0------0--0----5----|
|----------------0-0-3-----|---------------0-0-3-----|----------------------|


                                                                              
-------------------------|-------------------------|-------------------------|
-------------------------|-------------------------|-------------------------|
--9------9--9------------|--2------2--2------------|--5------5--5------------|
--9------9--9------5--5--|--2------2--2------------|--5------5--5------------|
--7------7--7------3--2--|--0------0--0---------5--|--3------3--3------------|
---------------0-0-------|---------------0-0-3-----|---------------0-0-3-----|


                                                                          
-----------------------|--------------------|
-----------------------|--------------------|
--2------2--2----------|--------------------|
--2------2--2----------|--2-----------------|
--0------0--0----5--4--|--2-----------------|
-----------------3--2--|--0-----------------|


On reprend le passage clean =

--x-----0-------------0|----------3--3-0-0----------|
--0h1-1----------1----1|--------1-3------0--0-1/3---|
--2----------0-2------0|----0-2---0------0--0-2/4---|
--2--------2----------2|--2-------0------2--------2-|
--0-------------------3|----------2------2--------2-|
--x-------------------0|----------3------0----------|

Pareille, un certain nombre de fois (elle est précise ma tab hein !! ^^)

Ça re-dégénère =

                                                                                
|--------------------------|
|--------------------------|
|--4--4--4--4--4--4--4--4--|
|--2--2--2--2--2--2--2--2--|
|--2--2--2--2--2--2--2--2--|
|--0--0--0--0--0--0--0--0--|


                                                                           
-------------------------|-------------------------|----------------------|
-------------------------|-------------------------|----------------------|
--2------2--2------------|--5------5--5------------|--2------2--2----7----|
--2------2--2------------|--5------5--5------------|--2------2--2----7----|
--0------0--0---------5--|--3------3--3---------5--|--0------0--0----5----|
---------------0-0-3-----|---------------0-0-3-----|----------------------|


                                                                              
-------------------------|-------------------------|-------------------------|
-------------------------|-------------------------|-------------------------|
--9------9--9------------|--2------2--2------------|--5------5--5------------|
--9------9--9------5--5--|--2------2--2------------|--5------5--5------------|
--7------7--7------3--2--|--0------0--0---------5--|--3------3--3---------5--|
---------------0-0-------|---------------0-0-3-----|---------------0-0-3-----|


                                                                      
-----------------------|-------------------|-------------------------|
-----------------------|-------------------|-------------------------|
--2------2--2----------|-------------------|--2------2--2------------|
--2------2--2----------|--2----------------|--2------2--2------------|
--0------0--0----5--4--|--2----------------|--0------0--0---------5--|
-----------------3--2--|--0----------------|---------------0-0-3-----|


                                                                           
-------------------------|----------------------|-------------------------|
-------------------------|----------------------|-------------------------|
--5------5--5------------|--2------2--2----7----|--9------9--9------------|
--5------5--5------------|--2------2--2----7----|--9------9--9------5--5--|
--3------3--3---------5--|--0------0--0----5----|--7------7--7------3--2--|
---------------0-0-3-----|----------------------|---------------0-0-------|


                                                                            
-------------------------|-------------------------|-----------------------|
-------------------------|-------------------------|-----------------------|
--2------2--2------------|--5------5--5------------|--2------2--2----------|
--2------2--2------------|--5------5--5------------|--2------2--2----------|
--0------0--0---------5--|--3------3--3---------5--|--0------0--0----5--4--|
---------------0-0-3-----|---------------0-0-3-----|-----------------3--2--|



                                                                         
----------------------|-------------------------|-----------------------|
----------------------|-------------------------|-----------------------|
----------------------|-------------------------|-----------------------|
--7/-9----9--9--------|--7/-9----9/-12--11------|----7----7--7------9-9-|
--5/-7----7--7--------|--5/-7----7/-10--9-------|----5----5--5----------|
----------------------|-------------------------|-----------------------|


                                                                               
-----------------------------|----------------------|-------------------------|
-----------------------------|----------------------|-------------------------|
-----------------------------|----------------------|-------------------------|
--9--7-7-7--5-5-5--4-4-4--5--|--7/-9----9--9--------|--7/-9----9/-12--11------|
-----------------------------|--5/-7----7--7--------|--5/-7----7/-10--9-------|
-----------------------------|----------------------|-------------------------|


                                                                             
-----------------------|-----------------------------|----------------------|
-----------------------|-----------------------------|----------------------|
-----------------------|-----------------------------|----------------------|
----7----7--7------9-9-|--9--7-7-7--5-5-5--4-4-4--5--|--7/-9----9--9--------|
----5----5--5----------|-----------------------------|--5/-7----7--7--------|
-----------------------|-----------------------------|----------------------|


                                                                                
-------------------------|-----------------------|-----------------------------|
-------------------------|-----------------------|-----------------------------|
-------------------------|-----------------------|-----------------------------|
--7/-9----9/-12--11------|----7----7--7------9-9-|--9--7-7-7--5-5-5--4-4-4--5--|
--5/-7----7/-10--9-------|----5----5--5----------|-----------------------------|
-------------------------|-----------------------|-----------------------------|


                                                                         
----------------------|-------------------------|-----------------------|
----------------------|-------------------------|-----------------------|
----------------------|-------------------------|-----------------------|
--7/-9----9--9--------|--7/-9----9/-12--11------|----7----7--7------9-9-|
--5/-7----7--7--------|--5/-7----7/-10--9-------|----5----5--5----------|
----------------------|-------------------------|-----------------------|


                                                                               
-----------------------------|----------------------|-------------------------|
-----------------------------|----------------------|-------------------------|
-----------------------------|----------------------|-------------------------|
--9--7-7-7--5-5-5--4-4-4--5--|--7/-9----9--9--------|--7/-9----9/-12--11------|
-----------------------------|--5/-7----7--7--------|--5/-7----7/-10--9-------|
-----------------------------|----------------------|-------------------------|


                                                                             
-----------------------|-----------------------------|----------------------|
-----------------------|-----------------------------|----------------------|
-----------------------|-----------------------------|----------------------|
----7----7--7------9-9-|--9--7-7-7--5-5-5--4-4-4--5--|--7/-9----9--9--------|
----5----5--5----------|-----------------------------|--5/-7----7--7--------|
-----------------------|-----------------------------|----------------------|


                                                                                
-------------------------|-----------------------|-----------------------------|
-------------------------|-----------------------|-----------------------------|
-------------------------|-----------------------|-----------------------------|
--7/-9----9/-12--11------|----7----7--7------9-9-|--9--7-7-7--5-5-5--4-4-4--5--|
--5/-7----7/-10--9-------|----5----5--5----------|-----------------------------|
-------------------------|-----------------------|-----------------------------|


                                                                         
----------------------|-------------------------|-----------------------|
----------------------|-------------------------|-----------------------|
----------------------|-------------------------|-----------------------|
--7/-9----9--9--------|--7/-9----9/-12--11------|----7----7--7------9-9-|
--5/-7----7--7--------|--5/-7----7/-10--9-------|----5----5--5----------|
----------------------|-------------------------|-----------------------|


                                                                               
-----------------------------|----------------------|-------------------------|
-----------------------------|----------------------|-------------------------|
-----------------------------|----------------------|-------------------------|
--9--7-7-7--5-5-5--4-4-4--5--|--7/-9----9--9--------|--7/-9----9/-12--11------|
-----------------------------|--5/-7----7--7--------|--5/-7----7/-10--9-------|
-----------------------------|----------------------|-------------------------|


                                                                               
-----------------------|-----------------------------|
-----------------------|-----------------------------|
-----------------------|-----------------------------|
----7----7--7------9-9-|--9--7-7-7--5-5-5--4-4-4--5--|
----5----5--5----------|-----------------------------|
-----------------------|-----------------------------|



------------------------|--------------------------|-------------------------|
------------------------|--------------------------|-------------------------|
------------------------|--------------------------|-------------------------|
-----------------9----9-|---------------12-11------|---------------7-----9-9-|
-----------------7----7-|---------------10--9------|---------------5---------|
-----0--0--0--0---------|---0--0--0--0-------------|---0--0--0--0------------|

                                                       
-----------------------------|------------------------|
-----------------------------|------------------------|
--------------------------4--|------------------------|
--9--7-7-7--5-5-5--4-4-4-----|--------------9------9--|
-----------------------------|--------------7------7--|
-----------------------------|--0--0--0--0------------|


                                                     
--------------------------|-------------------------|
--------------------------|-------------------------|
--------------------------|-------------------------|
--------------12--11------|--------------7------9-9-|
--------------10--9-------|--------------5----------|
--0--0--0--0--------------|--0--0--0--0-------------|


                                                                            
-----------------------------|---------------------|-----------------------|
-----------------------------|---------------------|-----------------------|
-----------------------------|---------------------|-----------------------|
--9--7-7-7--5-5-5--4-4-4--5--|---------4------5----|----4------------------|
-----------------------------|---------------------|-----------7--5--4-----|
-----------------------------|--7------------------|--------------------7--|

Capitaine, fin en vue, ça m'a même l'air d'être le plus simple du morceau (encore
heureux) =

---------------------|-----------------------|---------------------|
---------------------|-----------------------|---------------------|
---------------------|-----------------------|---------------------|
---------4------5----|----4------------------|---------4------5----|
---------------------|-----------7--5--4-----|---------------------|
--5------------------|--------------------5--|--7------------------|


                                                                      
-----------------------|---------------------|-----------------------|
-----------------------|---------------------|-----------------------|
-----------------------|---------------------|-----------------------|
----4------------------|---------4------5----|----7------5--4--2--4--|
-----------7--5--4-----|---------------------|-----------------------|
--------------------3--|--7------------------|-----------------------|


                                                                    
---------------------|-----------------------|---------------------|
---------------------|-----------------------|---------------------|
---------------------|-----------------------|---------------------|
---------4------5----|----4------------------|---------4------5----|
---------------------|-----------7--5--4-----|---------------------|
--5------------------|--------------------7--|--3------------------|


                                                                      
-----------------------|---------------------|-----------------------|
-----------------------|---------------------|-----------------------|
-----------------------|---------------------|-----------------------|
----4------------------|---------4------5----|----4------------------|
-----------7--5--4-----|---------------------|-----------7--5--4-----|
--------------------5--|--5------------------|--------------------3--|


                                                                    
---------------------|-----------------------|---------------------|
---------------------|-----------------------|---------------------|
---------------------|-----------------------|---------------------|
---------4------5----|----7------5--4--2--4--|---------4------5----|
---------------------|-----------------------|---------------------|
--0------------------|-----------------------|--5------------------|


                                                                      
-----------------------|---------------------|-----------------------|
-----------------------|---------------------|-----------------------|
-----------------------|---------------------|-----------------------|
----4------------------|---------4------5----|----4------------------|
-----------7--5--4-----|---------------------|-----------7--5--4-----|
--------------------7--|--3------------------|--------------------5--|


                                                                    
---------------------|-----------------------|---------------------|
---------------------|-----------------------|---------------------|
---------------------|-----------------------|---------------------|
---------4------5----|----4------------------|---------4------5----|
---------------------|-----------7--5--4-----|---------------------|
--5------------------|--------------------3--|--0------------------|


                                                                      
-----------------------|---------------------|-----------------------|
-----------------------|---------------------|-----------------------|
-----------------------|---------------------|-----------------------|
----7------5--4--2--4--|---------4------5----|----4------------------|
-----------------------|---------------------|-----------7--5--4-----|
-----------------------|--5------------------|--------------------7--|


                                                                    
---------------------|-----------------------|---------------------|
---------------------|-----------------------|---------------------|
---------------------|-----------------------|---------------------|
---------4------5----|----4------------------|---------4------5----|
---------------------|-----------7--5--4-----|---------------------|
--3------------------|--------------------5--|--5------------------|


                                                                      
-----------------------|---------------------|-----------------------|
-----------------------|---------------------|-----------------------|
-----------------------|---------------------|-----------------------|
----4------------------|---------4------5----|----7------5--4--2--4--|
-----------7--5--4-----|---------------------|-----------------------|
--------------------3--|--0------------------|-----------------------|


                                                                    
---------------------|-----------------------|---------------------|
---------------------|-----------------------|---------------------|
---------------------|-----------------------|---------------------|
---------4------5----|----4------------------|---------4------5----|
---------------------|-----------7--5--4-----|---------------------|
--5------------------|--------------------7--|--3------------------|


                                                                      
-----------------------|---------------------|-----------------------|
-----------------------|---------------------|-----------------------|
-----------------------|---------------------|-----------------------|
----4------------------|---------4------5----|----4------------------|
-----------7--5--4-----|---------------------|-----------7--5--4-----|
--------------------5--|--5------------------|--------------------3--|


                                                                    
---------------------|-----------------------|---------------------|
---------------------|-----------------------|---------------------|
---------------------|-----------------------|---------------------|
---------4------5----|----7------5--4--2--4--|---------4------5----|
---------------------|-----------------------|---------------------|
--0------------------|-----------------------|--5------------------|


                                                                      
-----------------------|---------------------|-----------------------|
-----------------------|---------------------|-----------------------|
-----------------------|---------------------|-----------------------|
----4------------------|---------4------5----|----4------------------|
-----------7--5--4-----|---------------------|-----------7--5--4-----|
--------------------7--|--3------------------|--------------------5--|


                                                                    
---------------------|-----------------------|---------------------|
---------------------|-----------------------|---------------------|
---------------------|-----------------------|---------------------|
---------4------5----|----4------------------|---------4------5----|
---------------------|-----------7--5--4-----|---------------------|
--5------------------|--------------------3--|--0------------------|


                                                                      
-----------------------|---------------------|-----------------------|
-----------------------|---------------------|-----------------------|
-----------------------|---------------------|-----------------------|
----7------5--4--2--4--|---------4------5----|----4------------------|
-----------------------|---------------------|-----------7--5--4-----|
-----------------------|--5------------------|--------------------7--|


                                                                    
---------------------|-----------------------|---------------------|
---------------------|-----------------------|---------------------|
---------------------|-----------------------|---------------------|
---------4------5----|----4------------------|---------4------5----|
---------------------|-----------7--5--4-----|---------------------|
--3------------------|--------------------5--|--5------------------|


                                                                      
-----------------------|---------------------|-----------------------|
-----------------------|---------------------|-----------------------|
-----------------------|---------------------|-----------------------|
----4------------------|---------4------5----|----7------5--4--2--4--|
-----------7--5--4-----|---------------------|-----------------------|
--------------------3--|--0------------------|-----------------------|


                                                                    
---------------------|-----------------------|---------------------|
---------------------|-----------------------|---------------------|
---------------------|-----------------------|---------------------|
---------4------5----|----4------------------|---------4------5----|
---------------------|-----------7--5--4-----|---------------------|
--5------------------|--------------------7--|--3------------------|


                                                                      
-----------------------|---------------------|-----------------------|
-----------------------|---------------------|-----------------------|
-----------------------|---------------------|-----------------------|
----4------------------|---------4------5----|----4------------------|
-----------7--5--4-----|---------------------|-----------7--5--4-----|
--------------------5--|--5------------------|--------------------3--|


                                                    
---------------------|-----------------------|----||
---------------------|-----------------------|----||
---------------------|-----------------------|----||
---------4------5----|----7------5--4--2--4--|----||
---------------------|-----------------------|----||
--0------------------|-----------------------|----||


Bah Voilà !!! 

Juste, ... soyez sympas c'est ma première tab  normalement, un peu plus de notes un petit
peu plus vite !! )
Partition transcrite par everton
Instruments : Partition basse, Partition batterie
with distortion
               
G-|-------11-|-
D-|----12----|-
A-|-14-------|-
E-|----------|-

                              .---.    .----------------.
G-|---11-12/14-12-14-|-16-14-12--14-|-14-16-14-1211-12-11----11-|-
D-|------------------|--------------|----------------------14----|-
A-|14----------------|--------------|----------------------------|-
E-|------------------|--------------|----------------------------|-

                               .---.
G-|-11-12-11----11-------|-----------------|----------12-|-11-----12/-|-
D-|----------14----14-12-|--------------12|-11-12-11----|------------|-
A-|----------------------|-12-14--(14)----|-------------|------------|-
E-|----------------------|-----------------|-------------|------------|-

                                                           full
                                                           / 

G-|-14~~~~-|-------|-16-------------------------------------|-----------|-
D-|--------|----16-|----16-------17-16----------------------|-----------|-
A-|--------|-18----|-------17----------17----19-17-16-------|-----------|-
E-|--------|-------|----------19----------17----------19-17-|-(17)~~~~~-|-

G-|---------------------|----------------------------------|-
D-|---------------------|-------11-12-11-12h-11p----11-12h-|-
A-|-12-14h--------------|-12-14------------------14--------|-
E-|--------12~~~-12-14h-|----------------------------------|-

G-|-----------------------|----------------|----------------------------|-
D-|-11p--21-19-17---17-19-|-16-------16-17-|-16-------16-17-16----19----|-
A-|-----------------------|----17----------|----17-------------17-------|-
E-|-----------------------|-------19-------|-------17-------------------|-

G-|------------|-------------------------16-17-19-21-22-24-22-24h-22p----|-
D-|-17-16~~~---|-------------------17-19-----------------------------19~~|-
A-|------------|----------17-19-20---------------------------------------|-
E-|------------|-17-19-20------------------------------------------------|-


Interlude solo:

G-|-14~~~--14-16-|-17~~~-17/19-17-16-|-------------|-------------------|-
D-|--------------|-------------------|-17~~~-17/19-|-14~~~-14/16-16/17-|-
A-|--------------|-------------------|-------------|-------------------|-
E-|--------------|-------------------|-------------|-------------------|-

        

                             full
                             /          /  /  /  / 
G-|-------------16-|-17~~~--19-----17-|-19-19-19-19-(19)~~~~--|-
D-|-17/19~~~-19----|------------------|-----------------------|-
A-|----------------|------------------|-----------------------|-
E-|----------------|------------------|-----------------------|-


                   F A D E   T O   B L A C K - Metallica
                   -------------------------------------

Transscribed by Wilbert Pol


synth. 116 bpm
------|---|---|---|-------|---|---|---|-------|---|---|---|-------|---|
------|---|---|---|-------|---|---|---|-------|---|---|---|-------|---|
------|---|---|---|-----4-|-2-|---|---|-----4-|-2-|---|---|-----4-|-2-|
------|---|---|---|-------|---|---|---|-------|---|---|---|-------|---|
        W   W   W   Q.. e   w   W   W   Q.. e   w   W   W   Q.. e   w
                       very softly-------------------------------------

|---|---|-------|---|---|---|---------|-----------|--------||
|---|---|-------|---|---|---|---------|-----------|--------||
|---|---|-----4-|-2-|---|---|---------|-----------|------7-||
|---|---|-------|---|---|---|-----(0)-|-1--0-4--0-|-7--7---||
  W   W   Q.. e   w   W   W   Q..  e    q. e q. e   q. e h
-------------------------------------|

|---|---|---|-----------|---|---|---|-----------|---------|-----------|
|---|---|---|-----------|---|---|---|-----------|---------|-----------|
|-0-|---|---|---7---7---|-0-|---|---|-----------|-0-0-0-2-|-3-3-3h5-3-|
|---|---|---|---0---0---|---|---|---|---0---0---|---------|-----------|
  w   W   W   H e E e E   w   W   W   H e E e E   h q e e   h q s s e

|---------|----------|---------|-----------|---------|--------||
|---------|----------|---------|-----------|---------|--------||
|-----5-3-|-------7-|-0-0-0-2-|-3-3-3h5-3-|---------|---7---||
|-3-3-----|-0-0------|---------|-----------|-3-3-5-3-|-0----0-||
  h q e e   h e E q    h q e e   h q s s e   h q e e   h q  q

verse 1
|---------|-----------|---------|---------|---------|-----------|---------|
|---------|-----------|---------|---------|---------|-----------|---------|
|-0-0-0-2-|-3-3-3h5-3-|-----5-3-|---7-7-|-0-0-0-2-|-3-3-3h5-3-|---------|
|---------|-----------|-3-3-----|-0-------|---------|-----------|-3-3-5-3-|
  h q e e   h q s s e   h q e e   h q  q    h q e e   h q s s e   h q e e

|-----------|---------|-----------|---------|-----------|---------|
|-----------|---------|-----------|---------|-----------|---------|
|---7---7---|-0-0-0-2-|-3-3-3h5-3-|-----5-3-|---7---7---|-0-0-0-2-|
|-0---------|---------|-----------|-3-3-----|-0---------|---------|
  h e E e E   h q e e   h q s s e   h q e e   h e E e E   h q e e

|---------------|--------------|-----------------||------------------|
|-----------7-7-|-9---7--------|-----------------||-o----------------|
|-3-3/-7h10-----|-------7h10-7-|-7-7-7-7-7-7-7-7-||-o--------------5-|
|---------------|--------------|-----------------||---5--5-5-0-0-3---|
  h q  s s  s s   h+e e s s  e   e e e e e e e e      q. e e s s e e

|----------------|--------------|----------------|----------------|
|----------------|--------------|----------------|----------------|
|-3--3-3-------5-|----------5---|-7--7-7-----3-2-|--------------5-|
|--------0-0-3---|-5--5-5-------|--------0-0-----|-5--5-5-0-0-3---|
  q. e e s s e e   q. e e E e E   q. e e s s e e   q. e e s s e e

                                  2x  interlude I
|----------------|------------|-----||---------|-----------|---------|
|----------------|------------|---o-||---------|-----------|---------|
|-3--3-3-------5-|------------|---o-||-0-0-0-2-|-3-3-3h5-3-|-----5-3-|
|--------0-0-3---|-5--5-5-3-2-|-0---||---------|-----------|-3-3-----|
  q. e e s s e e   q. e q e e   w      h q e e   h q s s e   h q e e

|----------|---------|-----------|---------|-----------||
|----------|---------|-----------|---------|-----------||
|-------7-|-0-0-0-2-|-3-3-3h5-3-|---------|---7-------||
|-0-0------|---------|-----------|-3-3-5-3-|-0-----0---||
  h e E q    h q e e   h q s s e   h q e e   h e E e E

verse 2
|---------|-----------|---------|----------|---------|-----------|---------|
|---------|-----------|---------|----------|---------|-----------|---------|
|-0-0-0-2-|-3-3-3h5-3-|-----5-3-|-------7/-|-0-0-0-2-|-3-3-3h5-3-|---------|
|---------|-----------|-3-3-----|-0-0------|---------|-----------|-3-3-5-3-|
  h q e e   h q s s e   h q e e   h e E q    h q e e   h q s s e   h q e e

|-----------|---------|-----------|---------|-------|---------|
|-----------|---------|-----------|---------|-------|---------|
|---7---7---|-0-0-0-2-|-3-3-3h5-3-|-----5-3-|-----7-|-0-0-0-2-|
|-0---------|---------|-----------|-3-3-----|-0-7---|---------|
  h e E e E   h q e e   h q s s e   h q e e   h q q   h q e e

|---------------|---------|-----------------||----------------|
|-----------7-7-|-9--(9)-|-----------------||----------------|
|-3-3/-7h10-----|---------|-7-7-7-7-7-7-7-7-||--------------5-|
|---------------|---------|-----------------||-5--5-5-0-0-3---|
  h q  s s  s s   h.  q     e e e e e e e e    q. e e s s e e

|----------------|--------------|----------------|----------------|
|----------------|--------------|----------------|----------------|
|-3--3-3-------5-|----------5---|-7--7-7-----3-2-|--------------5-|
|--------0-0-3---|-5--5-5-------|--------0-0-----|-5--5-5-0-0-3---|
  q. e e s s e e   q. e e E e E   q. e e s s e e   q. e e s s e e

|----------------|------------|---|----------------|----------------|
|----------------|------------|---|----------------|----------------|
|-3--3-3-------5-|------------|---|--------------5-|-3--3-3-------5-|
|--------0-0-3---|-5--5-5-3-2-|-0-|-5--5-5-0-0-3---|--------0-0-3---|
  q. e e s s e e   q. e q e e   w   q. e e s s e e   q. e e s s e e

|--------------|----------------|----------------|----------------|
|--------------|----------------|----------------|----------------|
|----------5---|-7--7-7-----3-2-|--------------5-|-3--3-3-------5-|
|-5--5-5-------|--------0-0-----|-5--5-5-0-0-3---|--------0-0-3---|
  q. e e E e E   q. e e s s e e   q. e e s s e e   q. e e s s e e

               144 bpm
|------------||---|-----|-----|-----|---|-----|-----------|
|------------||-9-|-(9)-|-(9)-|-(9)-|-9-|-(9)-|-(9)---9-9-|
|------------||-7-|-(7)-|-(7)-|-(7)-|-7-|-(7)-|-(7)-------|
|-5--5-5-3-2-||-0-|-(0)-|-(0)-|-(0)-|-0-|-(0)-|-(0)-------|
  q. e q e e    w   (w)   (w)   (w)   w   (w)   (h..) s s

                         bridge 1, interlude 2, bridge 2
|-----------------------||-----------|-----------|----------------|
|-9-7-7-7-5-5-5-4-4-4-5-||-o---------|-------5-4-|-(4)--------9-9-|
|-----------------------||-o-5-7-7-7-|-5-7-7-----|-----5-5-5------|
|-----------------------||-----------|-----------|----------------|
  e s s e s s e s s e e      e q e h   e q e e q.  (e) q e q. s s

                          6x
|--------------------------|||----------------|--------------|
|-9-7-7-7-5-5-5-4-4-4-5--o-|||-o--------------|--------------|
|------------------------o-|||-o---------7--7-|--------------|
|--------------------------|||---0-0-0-0------|-0-0-0-0-3-2--|
  e s s e s s e s s e e          e e e e q. e   e e e e e q.

                                           2x
|----------------|--------------------------||
|------------9-9-|-9-7-7-7-5-5-5-4-4-4-5--o-||
|---------5------|------------------------o-||
|-0-0-0-0--------|--------------------------||
  e e e e q. s s   e s s e s s e s s e e

    [B]                         [A]
||-----------|----------------|---------|----------------|
||-o---------|----------------|---------|----------------|
||-o----9--7-|-(7)-5--3-2-0---|----9--7-|-(7)-5--3-2-0---|
||---7-------|--------------2-|-5-------|--------------2-|
     q. q. q   (e) q. e e e e   q. q. q   (e) q. e e e e

  [G]                        [A]                      8x and fade
|---------|----------------|---------|------------------||
|---------|----------------|---------|----------------o-||
|----9--7-|-(7)-5--3-2-0---|----9--7-|-(7)-5--3-2-0---o-||
|-3-------|--------------2-|-5-------|--------------2---||
  q. q. q   (e) q. e e e e   q. q. q   (e) q. e e e e

--------------------------------------------------------------------------------------


Intro
T3|--- Silence ----|------------o---|o---------------|--- Silence ----|
F |----- x 3 ------|------------o---|o---------------|----- x 2 ------|

T3|------------o---|o---------------|--- Silence ----|------------o---|
F |------------o---|o---------------|----- x 2 ------|------------o---|

T3|o---------------|--- Silence ----|------------o---|o---------------|
F |o---------------|----- x 2 ------|------------o---|o---------------|

C |--- Silence ----|x-----x-x-----x-|x-----x-x-----x-|x---------------|
B |----- x 3 ------|o-----o-o-----o-|o-----o-o-----o-|o---------------|

C |--- Silence ----|--------x---x---|xxxxxxxxxxxxxxxx|--- Silence ----|
B |----- x 2 ------|--------o---o---|o---------------|----------------|

T1|----------------|oooo------------|
T2|----------------|----oooo--------|
T3|----------------|--------o-o-----|
F |----------------|------------o-o-|
S |------------oooo|----------------|
B |----------------|----------------|

Pre-Verse 1
C |x---------------|----------------|----------------|------------x---|
H |--x-x-x-x-x-x-x-|x-x-x-x-x-x-x-x-|x-x-x-x-x-x-x-x-|x-x-x-x-x-x---x-|
S |--------o-------|--------o-------|--------o-------|------------o---|
B |o-----o-------o-|o-----o-------o-|o-----o-------o-|o---o---o-o-----|

C |----------------|----------------|--------x-------|x-------------x-|
H |x-x-x-x-x-x-x-x-|x-x-x-x-x-x-x-x-|x-x-x-x---x-x-x-|----------------|
T2|----------------|----------------|----------------|-----o-----o----|
S |--------o-------|--------o-------|--------o-------|o-ooo---ooo-----|
B |o-----o-------o-|o-----o-------o-|o-----o-------o-|--------------o-|

Verse 1
C |x---------------|----------------|--------x-------|x-----------x-x-|
H |--x-x-x-x-x-x-x-|x-x-x-x-x-x-x-x-|x-x-x-x---x-x-x-|----------------|
S |--------o-------|--------o-------|--------o-------|o---oo--oo--o-o-|
B |o-----o-------o-|o-----o-------o-|o-----o-------o-|--o---o---o-----|

C |x---------------|----------------|----------------|--------x---x---|
H |--x-x-x-x-x-x-x-|x-x-x-x-x-x-x-x-|x-x-x-x-x-x-x-x-|x-x-x-x---------|
S |--------o-------|--------o-------|--------o-------|----------------|
B |o-----o-------o-|o-----o-------o-|o-----o-------o-|o-------o---o---|

C |x---------------|----------------|--------x-------|x-----------x-x-|
H |--x-x-x-x-x-x-x-|x-x-x-x-x-x-x-x-|x-x-x-x---x-x-x-|--x-x-x-x-------|
S |--------o-------|--------o-------|--------o-------|o-------o-ooo-o-|
B |o-----o-------o-|o-----o-------o-|o-----o-------o-|------o---------|

C |x---------------|----------------|--------x-------|----------------|
H |--x-x-x-x-x-x-x-|x-x-x-x-x-x-x-x-|x-x-x-x---x-x-x-|----------------|
F |----------------|----------------|----------------|o-o-o-o-o-o-o-o-|
S |--------o-------|--------o-------|--------o-------|o-o-o-o-o-o-o-o-|
B |o-----o-------o-|o-----o-------o-|o-----o---------|----------------|

Interlude 1
C |x-------------x-|x---------x-x-x-|x-----------x---|x---------------|
H |--x-x-x-x-------|--x-x-x-x-------|--x-x-x-x-x-----|--x-x-x---------|
T2|----------------|----------------|----------------|--------oo--oo--|
S |--------o-ooo---|--------o-------|--------o-------|----o-o---oo--oo|
B |o-----o-------o-|o-----o---o-o-o-|o-----o-----o---|o---------------|

C |x-------------x-|x---------x-x-x-|x-----------x-x-|x---------------|
H |--x-x-x-x-------|--x-x-x-x-------|--x-x-x-x-x-----|--x-x-x---------|
S |--------o-ooo---|--------o-------|--------o-------|----o---f---f---|
B |o-----o-------o-|o-----o---o-o-o-|o-----o-----o-o-|o---------o---o-|

C |x-------------x-|x---------x-x-x-|x-----------x---|x---------------|
H |--x-x-x-x-------|--x-x-x-x-------|--x-x-x-x-x-----|--x-x-x---------|
T2|----------------|----------------|----------------|--------oo--oo--|
S |--------o-ooo---|--------o-------|--------o-------|----o-o---oo--oo|
B |o-----o-------o-|o-----o---o-o-o-|o-----o-----o---|o---------------|

C |x-----------x-x-|x---------x-x-x-|x-----------x-x-|x---------------|
H |--x-x-x-x-------|--x-x-x-x-------|--x-x-x-x-x-----|--x-x-x---------|
T2|----------------|----------------|----------------|----------f-----|
T3|----------------|----------------|----------------|------------f---|
F |----------------|----------------|----------------|--------------f-|
S |--------o-oo----|--------o-------|--------o-------|----o---f-------|
B |o-----o-----o-o-|o-----o---o-o-o-|o-----o-----o-o-|o---------------|

Pre-Verse 2
C |x---------------|----------------|----------------|------------x---|
H |--x-x-x-x-x-x-x-|x-x-x-x-x-x-x-x-|x-x-x-x-x-x-x-x-|x-x-x-x-x-x---x-|
S |--------o-------|--------o-------|--------o-------|------------o---|
B |o-----o-------o-|o-----o-------o-|o-----o-------o-|o---o---o-o-----|

C |----------------|----------------|--------x-------|x-------------x-|
H |x-x-x-x-x-x-x-x-|x-x-x-x-x-x-x-x-|x-x-x-x---x-x-x-|----------------|
T2|----------------|----------------|----------------|-----o-----o----|
S |--------o-------|--------o-------|--------o-------|o-ooo---ooo-----|
B |o-----o-------o-|o-----o-------o-|o-----o-------o-|--------------o-|

Verse 2
C |x---------------|----------------|--------x-------|x-----------x-x-|
H |--x-x-x-x-x-x-x-|x-x-x-x-x-x-x-x-|x-x-x-x---x-x-x-|----------------|
S |--------o-------|--------o-------|--------o-------|o---oo--oo--o-o-|
B |o-----o-------o-|o-----o-------o-|o-----o-------o-|--o---o---o-----|

C |x---------------|----------------|----------------|--------x---x---|
H |--x-x-x-x-x-x-x-|x-x-x-x-x-x-x-x-|x-x-x-x-x-x-x-x-|x-x-x-x---------|
S |--------o-------|--------o-------|--------o-------|----------------|
B |o-----o-------o-|o-----o-------o-|o-----o-------o-|o-------o---o---|

C |x---------------|----------------|--------x-------|x-----------x-x-|
H |--x-x-x-x-x-x-x-|x-x-x-x-x-x-x-x-|x-x-x-x---x-x-x-|--x-x-x-x-------|
S |--------o-------|--------o-------|--------o-------|o-------o-ooo-o-|
B |o-----o-------o-|o-----o-------o-|o-----o-------o-|------o---------|

C |x---------------|----------------|--------x-------|----------------|
H |--x-x-x-x-x-x-x-|x-x-x-x-x-x-x-x-|x-x-x-x---x-x-x-|----------------|
F |----------------|----------------|----------------|o-o-o-o-o-o-o-o-|
S |--------o-------|--------o-------|--------o-------|o-o-o-o-o-o-o-o-|
B |o-----o-------o-|o-----o-------o-|o-----o---------|----------------|

Interlude 2
C |x-------------x-|x---------x-x-x-|x-----------x---|x---------------|
H |--x-x-x-x-------|--x-x-x-x-------|--x-x-x-x-x-----|--x-x-x---------|
S |--------o-ooo---|--------o-------|--------o-------|----o---f---f---|
B |o-----o-------o-|o-----o---o-o-o-|o-----o-----o---|o---------o---o-|

C |x-------------x-|x---------x-x-x-|x-----------x-x-|x---------------|
H |--x-x-x-x-------|--x-x-x-x-------|--x-x-x-x-x-----|--x-x-x---------|
S |--------o-ooo---|--------o-------|--------o-------|----o---f---f---|
B |o-----o-------o-|o-----o---o-o-o-|o-----o-----o-o-|o---------o---o-|

C |x-------------x-|x---------x-x-x-|x-----------x---|x---------------|
H |--x-x-x-x-------|--x-x-x-x-------|--x-x-x-x-x-----|--x-x-x---------|
T2|----------------|----------------|----------------|--------oo--oo--|
S |--------o-ooo---|--------o-------|--------o-------|----o-o---oo--oo|
B |o-----o-------o-|o-----o---o-o-o-|o-----o-----o---|o---------------|

C |x-------------x-|x---------x-x-x-|x-----------x-x-|
H |--x-x-x-x-------|--x-x-x-x-------|--x-x-x-x-x-----|
S |--------o-ooo---|--------o-------|--------o-------|
B |o-----o-------o-|o-----o---o-o-o-|o-----o-----o-o-|

Pre-Verse 3
C |x---------------|----------------|x---------------|----------------|
H |----------------|--- Silence ----|----------------|--- Silence ----|
S |----------------|----- x 3 ------|----------------|----------------|
B |o---------------|----------------|o---------------|----------------|

H |----------------|----------------|
S |----------------|f---f---f---f---|
B |--------------oo|--oo--oo--oo--o-|

Verse 3
C |x---------------|----------x-x-x-|x---------------|----------------|
H |--x-x-x-x-x-x-x-|x-x-x-x-x-------|--x-x-x-x-x-x-x-|x-x-x-x-x-x-x-x-|
S |--------o-------|--------o-------|--------o-------|o---o---o---o---|
B |o-----o-------o-|o-----oo--o-o-o-|o-----o-------o-|--o---o---o---o-|

C |x---------------|--------------x-|x---------------|----------------|
H |--x-x-x-x-x-x-x-|x-x-x-x-x-------|--x-x-x-x-x-x-x-|x-x-x-x-x-x-x-x-|
S |--------o-------|--------o-ooo---|--------o-------|o---o---o---o---|
B |o-----o-------o-|------oo------o-|o-----o-------o-|--o---o---o---o-|

C |x---------------|------------x-x-|x---------------|----------------|
H |--x-x-x-x-x-x-x-|x-x-x-x-x-x-----|--x-x-x-x-x-x-x-|x-x-x-x-x-x-x-x-|
S |--------o-------|------------o---|--------o-------|o---o---o---o---|
B |o-----o-------o-|o---o---o-o---o-|o-----o-------o-|--o---o---o---o-|

C |x---------------|--------------x-|x-------x-------|x---------------|
H |--x-x-x-x-x-x-x-|x-x-x-x-x-------|--x-x-x---x-x-x-|----------------|
T2|----------------|----------------|----------------|----oooo--------|
T3|----------------|----------------|----------------|--------oooo----|
F |----------------|----------------|----------------|------------oooo|
S |--------o-------|--------o-ooo---|----------------|o-oo------------|
B |o-----o-------o-|o-----oo------o-|o-----o-o-----o-|----------------|

C |x---------------|----------x-x-x-|x-------x-------|----------------|
H |--x-x-x-x-x-x-x-|x-x-x-x-x-------|--x-x-x---x-x-x-|x-x-x-x-x-x-x-x-|
S |--------o-------|--------o-------|----------------|o---o---o---o---|
B |o-----o-------o-|o-----oo--o-o-o-|o-----o-o-----o-|--o---o---o---o-|

C |x---------------|--------------x-|x---------------|x-------x-x-x-x-|
H |--x-x-x-x-x-x-x-|x-x-x-x-x-------|--x-x-x-x-x-x-x-|----------------|
S |--------o-------|--------o-ooo---|--------o-------|o-oooo----------|
B |o-----o-------o-|o-----o-------o-|o-----o-------o-|--------o-o-o-o-|

Outro
C |x---------------|----------------|----------------|----x-------x---|
H |----x---x---x---|x---x---x---x---|x---x---x---x---|x-------x-------|
S |----o-------o---|----o-------o---|----o-------o---|----o-------o---|
B |o-------o-------|o-------o-------|o-------o-------|o-------o-----o-|

C |x---------------|----------------|----------------|----------------|
H |----x---x---x---|x---x---x---x---|x---x---x---x---|----------------|
T2|----------------|----------------|----------------|oo--oo----------|
S |----o-------o---|----o-------o---|----o-------o---|--oo----f---f---|
B |o-------o-o-----|o-------o-o-----|o-------o-o-----|----------o---o-|

C |x---------------|----------------|x---------------|----------------|
H |----x---x---x---|x---x---x---x---|----x---x---x---|x---x---x---x---|
S |----o-------o---|----o-------o---|----o-------o---|----o-------o---|
B |o-------o-------|o-------o-------|o-------o-------|o-------o-----o-|

C |x---------------|----------------|x---------------|----------------|
H |----x---x---x---|x---x---x---x---|----x---x---x---|x---x---x---x---|
S |----o-------o---|----o-------o---|----o-------o---|----o-------o---|
B |o-------o-------|o-------o-------|o-------o-------|o-------o-----o-|

C |x---------------|----------------|x---------------|----------------|
H |----x---x---x---|x---x---x---x---|----x---x---x---|x---x---x---x---|
S |----o-------o---|----o-------o---|----o-------o---|----o-------o---|
B |o-------o-------|o-------o-------|o-------o-------|o-------o-----o-|

C |x---------------|----------------|x---------------|----------------|
H |----x---x---x---|x---x---x---x---|----x---x---x---|x---x---x---x---|
S |----o-------o---|----o-------o---|----o-------o---|----o-------o---|
B |o-------o-------|o-------o-------|o-------o-------|o-------o-----o-|

C |x---x---x---x---|x---x---x---x---|x---x---x---x---|x---x---x---x---|
H |----------------|----------------|----------------|----------------|
S |----o-------o---|----o-------o---|----o-------o---|----o-------o---|
B1|o-o-o-o-o-o-o-o-|o-o-o-o-o-o-o-o-|o-o-o-o-o-o-o-o-|o-o-o-o-o-o-o-o-|
B2|-o-o-o-o-o-o-o-o|-o-o-o-o-o-o-o-o|-o-o-o-o-o-o-o-o|-o-o-o-o-o-o-o-o|

C |x---x---x---x---|x---x---x---x---|x---x---x---x---|x---x---x---x---|
H |----------------|----------------|----------------|----------------|
S |----o-------o---|----o-------o---|----o-------o---|----o-------o---|
B1|o-o-o-o-o-o-o-o-|o-o-o-o-o-o-o-o-|o-o-o-o-o-o-o-o-|o-o-o-o-o-o-o-o-|
B2|-o-o-o-o-o-o-o-o|-o-o-o-o-o-o-o-o|-o-o-o-o-o-o-o-o|-o-o-o-o-o-o-o-o|

C |x---x---x---x---|x---x---x---x---|x---x---x---x---|x---x---x---x---|
H |----------------|----------------|----------------|----------------|
S |----o-------o---|----o-------o---|----o-------o---|----o-------o---|
B1|o-o-o-o-o-o-o-o-|o-o-o-o-o-o-o-o-|o-o-o-o-o-o-o-o-|o-o-o-o-o-o-o-o-|
B2|-o-o-o-o-o-o-o-o|-o-o-o-o-o-o-o-o|-o-o-o-o-o-o-o-o|-o-o-o-o-o-o-o-o|

C |x---x---x---x---|x---x---x---x---|x---x---x---x---|x---x---x---x---|
H |----------------|----------------|----------------|----------------|
S |----o-------o---|----o-------o---|o---o---o---o---|o---o---o---o---|
B1|o-o-o-o-o-o-o-o-|o-o-o-o-o-o-o-o-|o-o-o-o-o-o-o-o-|o-o-o-o-o-o-o-o-|
B2|-o-o-o-o-o-o-o-o|-o-o-o-o-o-o-o-o|-o-o-o-o-o-o-o-o|-o-o-o-o-o-o-o-o|

C |x---x---x---x---|x---x---x---x---|x---x---x---x---|x---x---x---x---|
H |----------------|----------------|----------------|----------------|
S |o---o---o---o---|o---o---o---o---|o---o---o---o---|o---o---o---o---|
B1|o-o-o-o-o-o-o-o-|o-o-o-o-o-o-o-o-|o-o-o-o-o-o-o-o-|o-o-o-o-o-o-o-o-|
B2|-o-o-o-o-o-o-o-o|-o-o-o-o-o-o-o-o|-o-o-o-o-o-o-o-o|-o-o-o-o-o-o-o-o|

C |x---x---x---x---|x---x---x---x---|x---x---x---x---|x---x---x---x---|
H |----------------|----------------|----------------|----------------|
S |o---o---o---o---|o---o---o---o---|o---o---o---o---|o---o---o---o---|
B1|o-o-o-o-o-o-o-o-|o-o-o-o-o-o-o-o-|o-o-o-o-o-o-o-o-|o-o-o-o-o-o-o-o-|
B2|-o-o-o-o-o-o-o-o|-o-o-o-o-o-o-o-o|-o-o-o-o-o-o-o-o|-o-o-o-o-o-o-o-o|

C |x---x---x---x---|x---x---x---x---|x---x---x---x---|x---x---x---x---|
H |----------------|----------------|----------------|----------------|
S |o---o---o---o---|o---o---o---o---|o---o---o---o---|o---o---o---o---|
B1|o-o-o-o-o-o-o-o-|o-o-o-o-o-o-o-o-|o-o-o-o-o-o-o-o-|o-o-o-o-o-o-o-o-|
B2|-o-o-o-o-o-o-o-o|-o-o-o-o-o-o-o-o|-o-o-o-o-o-o-o-o|-o-o-o-o-o-o-o-o|

C |x---x---x---x---|x---x---x---x---|x---x---x---x---|x---x---x---x---|
H |----------------|----------------|----------------|----------------|
S |o---o---o---o---|o---o---o---o---|o---o---o---o---|o---o---o---o---|
B1|o-o-o-o-o-o-o-o-|o-o-o-o-o-o-o-o-|o-o-o-o-o-o-o-o-|o-o-o-o-o-o-o-o-|
B2|-o-o-o-o-o-o-o-o|-o-o-o-o-o-o-o-o|-o-o-o-o-o-o-o-o|-o-o-o-o-o-o-o-o|

C |x---------------|----------------|x---------------|----------------|
H |----x---x---x---|x---x---x---x---|----x---x---x---|x---x---x---x---|
B |o---------------|----------------|o---------------|----------------|

C |x---------------|----------------|x---------------|----------------|
H |----x---x---x---|x---x---x---x---|----x---x---x---|x---x---x---x---|
B |o---------------|----------------|o---------------|----------------|

C |x-----x-----x---|--x-----x-x-x-x-|xxxxxxxxxxxxxxxx|xxxxxxxxxxxxxxxx|
B |o-----o-----o---|--o-----o-o-o-o-|o---------------|----------------|



Accueil | Tablatures | Compos | Blog | Forum | Annuaire | Contact